Solier Side(Hypnotize)

System Of A Down

_Soldier Side(hypnotize) 
_System Of A Down 
_Tab. Baixo 
_por: Bunda_666 
 
essa cifra é 100% correta!!!!! 
------------------------------- 
 
Afinação: C,G,c,F 
 
 
intro(junto da guitarra):--------------------------------------- 
 
F|----15---15---15---15---13---13---13---13--12---12---12---12---13---13---13---13--| 
C|-15---15---15---15---13---13---13---13--12---12---12---12---13---13---13---13-----|  G|-----------------------------------------------------------------------------------------------| 
C|-----------------------------------------------------------------------------------------------| 
 
F|----15---15---15---15---13---13---13---13--12---12---12---12---13---13-1313131313131313--| 
C|-15---15---15---15---13---13---13---13--12---12---12---12---13---13----1313131313131313--|  G|-----------------------------------------------------------------------------------------------------------| 
C|-----------------------------------------------------------------------------------------------------------| 
 
 
------------------------------------------------------------------------------------------------------------------- 
 
Verso:---------------------------------------------- 
 
F |--------------------------------------------------------|------------------------------------------------------| 
C |--------------------------------------------------------|------------------------------------------------------|    
G |--------------------------------------------------1/3--|------------------------------------------------1/3---| 
C |---5~----------------3-2-0---------------------------|-5~----------------3-2-0-----------------------------| 
      'Dead man lying on the botton o the grave...' | 'Wondering.....comes is he gonna be saveg' 
       
 
F |--------------------------------------------------------------------------------------------------------| 
C |--------------------------------------------------------------------------------------------------------| 
G |---------------------88887777---------------------------------------88887777----------------------| 
C |-88888888888888-----------7777777777777788888888888888------------77777777777777--| 
 
------------------------------------------------------------------------------------------------------------------- 
 
Refrão:------------------'They were crying when their sons left.....'------------------- 
 
F|----15---15---15---15---13---13---13---13--12---12---12---12---13---13---13---13--| 
C|-15---15---15---15---13---13---13---13--12---12---12---12---13---13---13---13-----|  G|-----------------------------------------------------------------------------------------------| 
C|-----------------------------------------------------------------------------------------------| 
 
F|----15---15---15---15---13---13---13---13--12---12---12---12---13---13---13---13--| 
C|-15---15---15---15---13---13---13---13--12---12---12---12---13---13---13---13-----|  G|-----------------------------------------------------------------------------------------------| 
C|-----------------------------------------------------------------------------------------------| 
 
------------------------------------------------------------------------------------------------------------------- 
 
Verso:---------------------------------------------- 
 
F |--------------------------------------------------------|------------------------------------------------------| 
C |--------------------------------------------------------|------------------------------------------------------|    
G |--------------------------------------------------1/3--|------------------------------------------------1/3---| 
C |---5~----------------3-2-0---------------------------|-5~----------------3-2-0-----------------------------| 
      'Young men......on the top..... own graves...' | 'Wondering....comes are they gonna be saveg' 
       
 
F |--------------------------------------------------------------------------------------------------------| 
C |--------------------------------------------------------------------------------------------------------| 
G |---------------------88887777---------------------------------------88887777----------------------| 
C |-88888888888888-----------7777777777777788888888888888------------77777777777777--| 
 
 
------------------------------------------------------------------------------------------------------------------- 
 
Refrão:------------------'They were crying when their sons left.....'------------------- 
 
F|----15---15---15---15---13---13---13---13--12---12---12---12---13---13---13---13--| 
C|-15---15---15---15---13---13---13---13--12---12---12---12---13---13---13---13-----|  G|-----------------------------------------------------------------------------------------------| 
C|-----------------------------------------------------------------------------------------------| 
 
F|----15---15---15---15---13---13---13---13--12---12---12---12---13---13---13---13--| 
C|-15---15---15---15---13---13---13---13--12---12---12---12---13---13---13---13-----|  G|-----------------------------------------------------------------------------------------------| 
C|-----------------------------------------------------------------------------------------------| 
 
------------------------------------------------------------------------------------------------------------------- 
 
Solo:---Baixo é base----------------------------------------------------------- 
 
F |-------------------------------------------||------------------------------------------------| 
C |-------------------------------------------||------------------------------------------------| 
G |-------------------------------------------||------------------------------------------------| 
C |--5-5-5-3-2-0-0-0-0-7-7-7-7-0-2-3-2-||--5-5-5-3-2-0-0-0-0-7-7-7-7-0-2-3-2------| 
 
------------------------------------------------------------------------------------------------------------------ 
 
Soldier Side Part.: 
 
F |-------------------------------||----------------------------------------------| 
C |-------------------------------||----------------------------------------------| 
G |-------------------------------||----------------------------------------------| 
C |-33-22-55-00-2222-7777--||-33-22-55-00-2222-7777-----------------| 
 
--------------------------------------------------------------------------------------------------------------- 
 
Outro(final):---------------------------------------------------------------------------------------- 
 
'3min.23s' 
F |------------------------------------------------------------| 
C |------------------------------------------------------------| 
G |---8--8-----7-7---7-/10-----8---8-/7-7--7-7--7---------| 
C |------------------------------------------------------------| 
 
'3min.32s' 
F |-------| 
C |-------| 
G |-0~---| 
C |-------| 
 
-------------------------------/-/--------------------------------- 
------------------------------/-/---------------------------------- 
 
 
é isso ai .......está cifra está 100% correta para você tocar no seu baixo.....Divirtam-se !!!!!!! 
essa musica é sem sombra de duvias a melhor do album Hypnotize......quem quiser entrar em contato para tirar alguma duvida me mande um e-mail: [email protected]!!!!! 
aé... meu nome é Daniel............VALEU!!!!!!!!!!! 
 
 

Compartilhe esta música: novo

QR Code
Copiar