Intro 
 
|---9-8-7-8--9--9-10-9---8--8---9--9---9-- 
|----------0--0---------0--0--0--0---0----   repeat for 54 seconds 
|----------------------------------------- 
|-0---------------------------------------     then verse 
 
Verse/Chorus 
|------------------------------------------- 
|-------------------------------------------  
|-------------------------------------------  (:54-2:45) 
|-3-3-3-5-3-3-3-2-3-2-3-3-3-5-3-3-3-2-3-2-3- 
 
Bridge 
 
|--------------------------  repeat this a few times when it goes quiet and the  
|--------------------------  guitar is playing 
|-------------------------- 
|-0*--------------------0*- 
 
|-------------------------------------- 
|-------------------------------------- 
|-------------------------------------- 
|-22--3---2-2-3-4-5--22--3---2-2-3-4-5- 
 
Outro 
 
|---------------------------------- 
|---------------------------------- 
|---------------------------------- 
|-0000-2-0-2-0000-2-0-2-0000-2-0-2- 
 
|----------------------------------  repeat each of these measure a few times, 
|----------------------------------  listen to the song its simple 
|---------------------------------- 
|-2222---3333-2222-3333-2222-3333-- 
 
|------------------------- 
|------------------------- 
|------------------------- 
|-2-1-5-4-2-1-5-4-2-1-5-4-

Compartilhe esta música: novo

QR Code
Copiar