Holy Mountain

System Of A Down

Intro 
|--------------------------------------------------| 
|--------------------------------------------------| 
|--------------------------------------------------| 
|--7--7--8--8---12-12-8-7-5-5---3-3-8-7-7---2-3-2-0| 
 
Chorus 
|-----------------------------------------| 
|-----------------------------------------| 
|-----------------------------------------| 
|-0-8-7----12-8-7-5----3-8-7----2-3-2-0---| 
 
 
|------| 
|------| 
|------| 
|-3-2-0| 
 Oh o ooo.. 
 
|--------------------| 
|--------------------| 
|--------------------| repeat 
|-0-2-3--5-7-8-10-12-| 
 
|----------------------| 
|----------------------| 
|----------------------| 
|-88-88-88-88-7-10-7-8-| 
 
|--------------| 
|--------------| 
|--------------| 
|-8-88-7-5-8-7-| 
 
|------------------------| 
|------------------------| 
|------------------------| 
|-1--2--4--6--7--8-10--12--14| 
 
|-----------------------------------------| 
|-----------------------------------------| 
|-----------------------------------------| 
|-0-8-7----12-8-7-5----3-8-7----2-3-2-0---| 
 
 
|------------------------| 
|------------------------| 
|------------------------| 
|-1--2--4--6--7--8-10--12--14| 
 
 
|----------------------| 
|----------------------| 
|----------------------| 
|-88-88-88-88-7-10-7-8-| 
 
 
 
|--------------| 
|--------------| 
|--------------| 
|-7-8-10-12/7--| 
 
|-----------------------------------------| 
|-----------------------------------------| 
|-----------------------------------------|  repeat 
|-0-8-7----12-8-7-5----3-8-7----2-3-2-0---| 
 
|----------------------| 
|----------------------| 
|----------------------| 
|-88-88-88-88-7-10-7-8-| 
 
|-----------------------------------------| 
|-----------------------------------------| 
|-----------------------------------------|  repeat.. 
|-0-8-7----12-8-7-5----3-8-7----2-3-2-0---| 
 
End only guitar 
 
I'm not sure for all the tabs.. I cannot tabs all the song... so good play ;)

Compartilhe esta música: novo

QR Code
Copiar