Say You Will

Soil

Intro 
Gb|-----------------------------------------------| 
Db|-----------------------------------------------| 
Ab|------------------------------5-5-5-5--7-7-7-7-| 
Eb|-5~--------------------------------------------| 

Verse 
Gb|---------------------------------------------------------------| 
Db|---------------------------------------------------------------| 
Ab|----------7-7-7-7----------5p-4-5p-4----------7-7-7-7----------| 
Eb|-5-5-5-5-----------2-2-2-2------------5-5-5-5----------2-2-2-2-| 

verse 2 
Gb|---------------| 
Db|---------------| 
Ab|-------5-5-5-5-| 
Eb|-12/0----------| 

Gb|---------| 
Db|---------| 
Ab|---------| 
Eb|-0-0-0-0-| 

Pre-Chorus is a Guitar Riff Only (0:35 - 0:39)(1:30 - 1:34) 

Chorus 
Gb|--------------------------------------------------| 
Db|--------------------------------------------------| 
Ab|-------------------------------------5-5-5--------| 
Eb|-5-5-5-5--4-4-4-4--2-2-2-2--0-0-0-0---------x-x-x-| 

Gb|--------------------------------------------------| 
Db|--------------------------------------------------| 
Ab|-------------------------------------5-5-5--------| 
Eb|-5-5-5-5--4-4-4-4--2-2-2-2--0-0-0-0---------0-0-0-| 

Fill 
Gb|------------------------------------|(x2) 
Db|------------------------------------| 
Ab|----------7-7-7-7-----------5-5-5-5-| 
Eb|-5-5-5-5-----------3-3-3-3----------| 

End 
Gb|-----| 
Db|-----| 
Ab|-----| 
Eb|-5---| 

************************************ 

| b  Bend 
| ~  Vibrato 
| p  Pull-off 
| /  Slide up 
| x  Dead note 

************************************ 

Compartilhe esta música: novo

QR Code
Copiar