Ma Mlodie

Sexion D'Assaut

Tuning standard : EADG 
Intro(Guitar riff) x2 : 

E:------------|------------|------------|------------| 
A:------------|------------|------------|------------| 
D:------------|------------|------------|------------| 
G:------------|------------|------------|------------| 

Pre-Verse x2 ( Pourvu qu'ma mélodie...) : 

E:-5-5-0-0----|--2--5-5-0-0|------2-----| 
A:---------2-2|2-----------|2-2-2-------| 
D:------------|------------|------------| 
G:------------|------------|------------| 

Verse ( J'ai les idées neuves...) x3 : 


E:-5-5-0-0----|--2--| 
A:---------2-2|2----| 
D:------------|-----| 
G:------------|-----| 

Verse - Dernier temps(Last time) : 

E:-5-5-0-0----|-2/14/4-----| 
A:---------2-2|2-----------| 
D:------------|------------| 
G:------------|------------| 

Solo de Dry : 

E:------------|------------|------------|------------| 
A:------------|------------|------------|------------| 
D:------------|------------|------------|------------| 
G:------------|------------|------------|------------| 

E:-5-5-0-0----|--2--5-5-0-0|------2-----| 
A:---------2-2|2-----------|2-2-2-------| 
D:------------|------------|------------| 
G:------------|------------|------------| 

Chorus / Refrain( Maitre Gims ) x2 : 

E:-5-5-0-0----|--2--5-5-0-0|------2-----| 
A:---------2-2|2-----------|2-2-2-------| 
D:------------|------------|------------| 
G:------------|------------|------------| 

Apres a vous de faire l'ordre ( Vous êtes pas con ^^ ), bande de rappeurs bassistes ! :) 

Compartilhe esta música: novo

QR Code
Copiar