Electric Pilgrim

Screaming Females

Intro 

G|-----------------|-----------------|-----------------|-------------------| 
D|-----------------|-----------------|-----------------|-------------------| 
A|-7---7---5-5---7-|---7---7-5---5---|-7---7---5-5---7-|---7---7/12---12\--| 
E|-----------------|-----------------|-----------------|-------------------| 
   .   .     .   .     .     .   .     .   .     .   .     . 
G|-----------------|-----------------|-----------------|-------------------| 
D|-----------------|-----------------|-----------------|-------------------| 
A|-7---7---5-5---7-|---7---7-5---5---|-7---7---5-5---7-|---7---7/12---12---| 
E|-----------------|-----------------|-----------------|-------------------| 
   .   .     .   .     .     .   .     .   .     .   .     . 

verse 1 

G|-----------------|-----------------|-----------------|-----------------| 
D|-----------------|-----------------|-----------------|-----------------| 
A|-----------------|-5---5---5-5-5---|-----------------|-----------------| x4 
E|-0---0---0-0-0---|-----------------|-5---5---5-5-5---|-7---5---3---2---| 
                                                         .   .   .   . 

Chorus 1 

G|-----------------|-----------------|-----------------|-----------------| 
D|-----------------|-----------------|-----------------|-----------------| 
A|-7---7\----------|-----------------|-----------------|-----------------| x3 
E|-----------------|-----------------|-----------------|-----------------| 
   . 
G|-----------------|-----------------|-----------------|-----------------| 
D|-----------------|-----------------|-----------------|-----------------| 
A|-7---7\----------|-----------------|-----------------|-----------------| 
E|-----------------|---------------5h|-7-------5-------|-7---5---3---2---| 
   .                                                     .   .   .   . 

verse 2 

G|-----------------|-----------------|-----------------|-----------------| 
D|-----------------|-----------------|-----------------|-----------------| 
A|-----------------|-5---5---5-5-5---|-----------------|-----------------| x4 
E|-0---0---0-0-0---|-----------------|-5---5---5-5-5---|-7---5---3---2---| 
                                                         .   .   .   . 

Chorus 2 

G|-----------------|-----------------|-----------------|-----------------| 
D|-----------------|-----------------|-----------------|-----------------| 
A|-7---7\----------|-----------------|-----------------|-----------------| x3 
E|-----------------|-----------------|-----------------|-----------------| 
   . 
G|-----------------|-----------------|-----------------|-----------------| 
D|-----------------|-----------------|-----------------|-----------------| 
A|-7---7\----------|-----------------|-----------------|-----------------| 
E|-----------------|---------------5h|-7-------5-------|-7---5---3---2---| 
   .                                                     .   .   .   . 

Guitar Solo 

G|-----------------|-----------------|-----------------|-----------------| 
D|-----------------|-----------------|-----------------|-----------------| 
A|-----------------|-5---5---5-5-5---|-----------------|-----------------| x8 
E|-0---0---0-0-0---|-----------------|-5---5---5-5-5---|-7---5---3---2---| 
                                                         .   .   .   . 
G|-----------------|-----------------|-----------------|-----------------| 
D|-----------------|-----------------|-----------------|-----------------| 
A|-----------------|-5---5---5---5---|-----------------|-----------------| 
E|-0---0---0---0---|-----------------|-5---5---5---5---|-5---5---5---5---| 
                                                                           x2 (Both Lines) 
G|-----------------|-----------------|-----------------|-----------------| 
D|-----------------|-----------------|-----------------|-----------------| 
A|-7---7---7---7---|-5---5---5---5---|-----------------|-----------------| 
E|-----------------|-----------------|-5---5---5---5---|-5---5---5---5---| 

Outro 

G|-----------------|-----------------|-----------------|-------------------| 
D|-----------------|-----------------|-----------------|-------------------| 
A|-7---7---5-5---7-|---7---7-5---5---|-7---7---5-5---7-|---7---7/12---12\--| 
E|-----------------|-----------------|-----------------|-------------------| 
   .   .     .   .     .     .   .     .   .     .   .     .                 x2 (Both Lines) 
G|-----------------|-----------------|-----------------|-------------------| 
D|-----------------|-----------------|-----------------|-------------------| 
A|-7---7---5-5---7-|---7---7-5---5---|-7---7---5-5---7-|---9---10---12\----| 
E|-----------------|-----------------|-----------------|-------------------| 
   .   .     .   .     .     .   .     .   .     .   .     .   .      
G|-----------------| 
D|-----------------| 
A|-7---------------| 
E|-----------------| 



************************************ 

| h   Hammer-on 
| /   Slide up 
| \   Slide down 

************************************ 

Compartilhe esta música: novo

QR Code
Copiar