The Deal Part ll

Ricochet

Verse 
G|------------------------------------------------------------------------| 
D|------------------------------------------------------------------------| 
A|--------------------------6-6-6--6-6-6-6-6-6-6--8-8-8--8-8-8-8-8-8-8----| 
E|----4-4-4--4-4-4-4-4-4-4------------------------------------------------| 

G|------------------------------------------------------------------------| 
D|------------------------------------------------------------------------| 
A|----3-3-3--3-3-3-3-3-3-3--4-4-4--4-4-4-4-4-4-4--6-6-6--6-6-6-6-6-6-6----| 
E|------------------------------------------------------------------------| 

G|---------------------------------------------------------------------| 
D|---------------------------------------------------------------------| 
A|----8--8--8--8--8--8--8--8-------------------------------------------| 
E|---------------------------------------------------------------------| 

X2 

Pre Chorus 
G|-----------------------------------------------------------------------| 
D|-----------------------------------------------------------------------| 
A|----4-4-4--4-4-4-4-4-4-4--6-6-6--6-6-6-6-6-6-6--3-3-3--3-3-3-3-3-3-3---| 
E|-----------------------------------------------------------------------| 

G|------------------------------------------------------------------------| 
D|------------------------------------------------------------------------| 
A|----8-8-8-8--6-6-6-6--4~~~~(let ring)~~~~7~~~~(let ring)----------------| 
E|------------------------------------------------------------------------| 


Chorus 
G|------------------------------------------------------------------------| 
D|---------------------3-3-3-3-3-3-3-3------------------------------------| 
A|------------3-3-3-3------------------4-4-4-4-4-4-4-4--7-7-7-7-7-7-7-7---| 
E|----4-4-4-4-------------------------------------------------------------| 

 

Compartilhe esta música: novo

QR Code
Copiar