36 Degrees

Placebo

Tom: F#
PLACEBO: 36 DEGREES:  During the first verse of this song i'm sure  
there's no bass so wait until the chorus ( ignore what I think are  
the lyrics as they are most probably wrong!! ). 

Chorus: 

G-------------------------------------------------------------------- 
D-------------------------------------------------------------------- 
A--4-4-4--4-4-4-4---4-4-4--4-4-4-4---8-8-8--8-8-8-8---8-8-8 
E-------------------------------------------------------------------- 

G----------------------- 
D----------------------- 
A---8-8-8-8----------- 
E----------------------- 

Repeat the chorus x3 after playing that round once. 

Verse: 

G-------------------------------------------------------------------- 
D-------------------------------------------------------------------- 
A-------------------------------------------------------------------- 
E--2-2-2--2-2-2-2---2-2-2--2-2-2-2---4-4-4--4-4-4-4----4-4 
       In    hind    sight    i    was    more......... 

G-------------------- 
D-------------------- 
A-------------------- 
E--4-4-4------------ 

Repeat that bit again until you do the chorus ( which is repaeted 4  
times ). 

After all that, Brian starts singing ' 1,7,2,3,9,8,5,    I gotta  
breath to stay alive '  under this play; 

G-------------------------------------------------------------------- 
D-------------------------------------------------------------------- 
A-------------------------------------------------------------------- 
E--2  let ring....--------2--2--/--9--\----2  let ring....------2--2- 

G-------------------------------------------------------------------- 
D-------------------------------------------------------------------- 
A-------------------------------------------------------------------- 
E--/--9--\----2---2-2-2--2-2-2--/--9--9--9-9-9--9-9-9--\------ 

Repeat that a few more times and keep repeating it after brians  
stopped singing.  After all that play the chorus twice and end it all  
by playing the second fret on the E string once and letting it ring  
until it fades out and the song ends. 

               Ian Edwards  [email protected] 

Compartilhe esta música: novo

QR Code
Copiar