A música toda é assim: 
G ------------------------------------------------------------------------------- 
D ------------------------------------------------------------------------------- 
A -----0--2-----0--2--0--0--------0--0------------------------------------------- 
E --2--------2--------------2--2--------2--2------------------------------------- 
                                                                                 
    
   Mas ele finaliza assim: 
G -----4--4--4-----4--4--4------------------------ 
D --4-----------4-----------2--4--4--4--2--4--4--4 
A ------------------------------------------------ 
E ------------------------------------------------ 
                                                  
 
 
O Beco  
 
No beco escuro explode a ---------  
Eu tava preparado  
Descobri mil maneiras de dizer o seu nome  
Com amor, ódio, urgência  
Ou como se não fosse nada 
 
No beco escuro explode a --------- 
Eu tava acordado  
Ruínas de igrejas, seitas sem nome 
Paixão, insônia, doença  
Liberdade vigiada 
 
No beco escuro explode a ---------  
No meio da madrugada  
Com amor, ódio, urgência  
Ou como se não fosse nada 
 
Mas nada perturba o meu sono pesado  
Nada levanta aquele corpo jogado  
Nada atrapalha aquele bar ali na esquina  
Aquela fila de cinema  
Nada mais me deixa chocado  
Nada!

Compartilhe esta música: novo

QR Code
Copiar