Canção noturna

Paralamas do Sucesso

Afinação Eb
 
 
Intro. e Canto 
 
G-----------------!!------------------ 
D-----------------!!------------------ 
A----9999--7/9----!!---7777--5/7------ 
E--7------7----7--!!-5------5----5---- 
 
  ----- 2x ----- 
 
 No primeiro verso da musica , depois segue uma vez cada . 
 
 
G--------------------------------------------------- 
D--------------7------------------------------------- 
A-------9-7-5-------7/9-7--------7/9 7--------------- 
E----7-----------5--------10--5--------10------------ 
 
Esplalho por ai boatos....  
 
G------------------ 
D------------------ 
A--7-7-7-7--5-5--5-5 
E--------------5---- 

Compartilhe esta música: novo

QR Code
Copiar