Aonde Quer Que Eu Vá

Paralamas do Sucesso

Tom: C
intro:  
 G|-7-9--| 
 D|----7-|     
 A|------| 
 E|------| 
 
 
Riff 1: Olhos fechados...  
G|-------------------------------- 
D|--------------------------------  ( 4X )  
A|----------------3-3--3-3-3--5-7- 
E|-5-5-5-5-5-5-5-5----5---5------5* 
ObS:na quarta vez ele cai pro Fá (8) ao invez de ir pro 5* 
 
Riff 2: ( Refrão ) E aonde quer que eu vá... 
G|---------------------------------------------- 
D|---------------------------------------------- 
A|-8-8-8--8-8-8-8--5-5-5-5-5---3\10-8-2-2-3-0...  
E|--------------------5---5--------------------- 
ObS:na segunda vez ele faz uma nota antes de ir para o Riff 1 denovo...  
D|-----5--  
A|-5-7----  
E|-------5...entra o riff 1 
 
Riff 1: Não sei bem certo ... 
G|-------------------------------- 
D|--------------------------------  ( 4X )  
A|----------------3-3--3-3-3--5-7- 
E|-5-5-5-5-5-5-5-5----5---5------5 
 
Riff 3: Longe daqui... Longe de tudo... 
G|-------------------------------------------------- 
D|-------------------------------------------------- ( 2x ) 
A|-5-5-5-5-5-5-2-2-2-2-2-2-4-4-4-4-4-4-4------------ 
E|---------------------------------------3-3-3-3-3-3 
ObS: na terceira vez ele faz isso 
 
G|--------------------------------------------------------------- 
D|--------------------------------------------------------------5 
A|-5-5-5-5-5-5-5-2-2-2-2-2-2-4-4-4-4-4-4-4-4-5...-3...-2...--5-7- 
e|---------------------------------------------------------------5 
 
Riff 1: Olhos fechados...  
G|-------------------------------- 
D|--------------------------------  ( 4X )  
A|----------------3-3--3-3-3--5-7- 
E|-5-5-5-5-5-5-5-5----5---5------5* 
ObS:na quarta vez ele cai pro Fá (8) ao invez de ir pro 5* 
 
 
Riff 2: ( Refrão ) E aonde quer que eu vá... 
G|---------------------------------------------- 
D|---------------------------------------------- (6 x ) 
A|-8-8-8--8-8-8-8--5-5-5-5-5---3\10-8-2-2-3-0...  
E|--------------------5---5--------------------- 
 
Final : 
G|-----------| 
D|----5------| 
A|-5h7-------| 
E|-----5...--| 

Compartilhe esta música: novo

QR Code
Copiar