Shot in The Dark

Ozzy Osbourne

Tom: Eb Ab Db Gb
Afinar em (Eb Ab Db Gb) 
 
Intro 
 Gb----------------------------------------------------------------2-- 
 Db------------------------------------------------------------5------ 
 Ab--2-2-2-2-2-2-2-2-2-2-2-2-2-2-2-------------------------------0---- 
 Eb--------------------------------0-3-3-3-3-3-3-3-3-3-3-3-3-3-------- 
 
 Gb------------------------------------------------------------------- 
 Db----------------------------------------------------5---------5-7-- 
 Ab--2-2-2-2-2-2-2-2-2-2-2-2-2-2-2---------------------------5-7------ 
 Eb--------------------------------0-3-3-3-3-3-3-3-3-3---5-7---------- 
 
 Verse 
 Gb----------------------------------------------------------------2-- 
 Db------------------------------------------------------------5------ 
 Ab--2-2-2-2-2-2-2-2-2-2-2-2-2-2-2-------------------------------0---- 
 Eb--------------------------------0-3-3-3-3-3-3-3-3-3-3-3-3-3-------- 
 
 Gb------------------------------------------------------------------- 
 Db----------------------------------------------------5---------5-7-- 
 Ab--2-2-2-2-2-2-2-2-2-2-2-2-2-2-2---------------------------5-7------ 
 Eb--------------------------------0-3-3-3-3-3-3-3-3-3---5-7---------- 
 
 Gb------------------------------------------------------------------- 
 Db------------------------------------------------------------------- 
 Ab--2-2-2-2-2-2-2-2-2-2-2-2-2-2-2------------------------------------ 
 Eb--------------------------------0-3-3-3-3-3-3-3-3-3-3-3-3-3-3-2-3-- 
 
 Pré-Chorus 
 Gb------------------------------------------------------ 
 Db--/5-5/7-7/9--5/7-7/9-------------------------------5- 
 Ab-----------------------------------------------5-7---- 
 Eb-----------------------7-7-7-7-7-7-5-7-7-7-7-7-------- 
 
 Pre-Chorus continue 
 Gb-------------------------------------------- 
 Db-------------------------------------------- 
 Ab--------------4--4/5--5/7--9-9-9-9-9--7--9-- 
 Eb--3--3/5--5/7------------------------------- 
 
 Chorus x 2 
 Gb---------------------------------------------------- 
 Db---------------------------4-----2------------------ 
 Ab--2-2-2-2-2-2-2-2-2--4--5-----5-----5/2-2-2-2h3-3--- 
 Eb---------------------------------------------------- 
 
 Intro 
 Verse 
 Pre-Chorus 
 Chorus x 4 
 
 Solo x 2 
 Gb--------------------------------------------------------------------- 
 Db------44-----7--4------44----7-4--------22----5--2------22----5-2---- 
 Ab--5-5----5---------5-5----5------5--3-3----3--------3-3----3------3-- 
 Eb--------------------------------------------------------------------- 
 
 Solo x 2                                 
 Gb-------------------------------------------------- 
 Db-------------------------------------------------- 
 Ab----------5----------5---------5------------------ 
 Eb--7--5-7-----7--5-7-----4--3-4---4--3--2-3--3--5-- 
 
 End Solo fill 
 Gb----------------------- 
 Db------------------3-4-- 
 Ab------------3-5-6------ 
 Eb--3--3--5-6------------ 
 
 repeat Pre-Chorus 
 repeat Chorus 
 
 Outro                   this riff x 2 
 Gb------------------------------------------------------------------- 
 Db----------------------------------------------------5---------5-7-- 
 Ab--2-2-2-2-2-2-2-2-2-2-2-2-2-2-2---------------------------5-7------ 
 Eb--------------------------------0-3-3-3-3-3-3-3-3-3---5-7---------- 
 
 Gb------------------------------------------------------------------ 
 Db------------------------------0h2------------------5---------5-7-- 
 Ab--2-2-2-2-2-2-2-2-2-2-2-2-0h2-----------------------------5-7----- 
 Eb----------------------------------3-3-3-3-3-3-3-3-3---5-7--------- 
 
add por [email protected] 

Compartilhe esta música: novo

QR Code
Copiar