I Just Want You

Ozzy Osbourne

Intro 
G-------------- 
D-------------- 
A------R------- 
E-------------- 
 
Verse Intro 
G------------------------------------------------------- 
D--/9--9-7--7h9---------------9--9-7--7h9--------------- 
A---------------7--7h9----7h9-------------7--7h9----9\-- 
E----------------------7-------------------------7------ 
 
Verse					'I don't ask much..' 
G--------------------------------------------------- 
D------------------------4\------------------------- 
A---------------------2----------------------------- 
E--7--7-5--5h7-0--0h2--------7--7-5--5h7--0--------- 
 
Chorus 
G-------------------------------------------------------------------------------------- 
D----------------------------------------------------------------------------------7--- 
A-----------------------------4h5p4-4h5p4------------------------------4h5p4--5--7----- 
E--7--7-7-7-5--5-5-\-0--0--0--------------5--7--7-7-7-5-5--5-\-0--0--0----------------- 
 
repeat Verse Intro 
repeat Verse 
 
Verse Fill 
G--------- 
D------7-- 
A--7h9---- 
E--------- 
 
repeat Chorus 
 
Interlude 
G----------------------------------------------------- 
D----------------------------------------------------- 
A--7-7-5-5-7-----7----------7-7-5-5-7-----7-5h7-5h7--- 
E------------0-0---5h7-2h3------------0-0------------- 
 
G------------------------------------------------------ 
D---------------------0h2-0-------------------------7-- 
A--2-2-2-2-0h2--2-2-2-------0h2-2-2-2-0h2-2--2--5h7---- 
E------------------------------------------------------ 
 
G----------------------------------------------------- 
D----------------------------------------------------- 
A--7-7-5-5-7-----7-7p5-7p5--7-7-5-5-7-----7----------- 
E------------0-0----------------------0-0----5h7-2h3-- 
 
G---------------------------------------------------------2h4-2-- 
D---------------------0h2-0-------------------2h4-----2h4-------- 
A--2-2-2-2-0h2--2-2-2-------0h2-2-2-2-0h2-2-2-----2-2------------ 
E---------------------------------------------------------------- 
 
Solo 
G----------------------------------------------------- 
D----------------------------------------------------- 
A---------------------5-7----7-----5h7-7-------5h7p5-- 
E--0--0-0--5h7-3--0-0------0---0-7-------0-0-0-------- 
 
G----------------------2---------------------------------- 
D------------------2h4-----------------------0---2---4---- 
A--2-2-2-2-0h2-2-2-------2-2-2-2-0h2-2-2-4-2---2---2---2-- 
E--------------------------------------------------------- 
 
G----------------------------------------------------- 
D----------------------------------------------------- 
A---------------------5-7----7-----5h7-7-------5h7p5-- 
E--0--0-0--5h7-3--0-0------0---0-7-------0-0-0-------- 
 
G---------------------------------------------------------2h4-2-- 
D---------------------0h2-0-------------------2h4-----2h4-------- 
A--2-2-2-2-0h2--2-2-2-------0h2-2-2-2-0h2-2-2-----2-2------------ 
E---------------------------------------------------------------- 
 
Solo 2 x 2 
G----------------------------------------------------------------------------------------- 
D-------\4--4\5-5\7-7\9-9\11-11\12-12\14-14\16-16\14-14\12-12\11-11\9-9\7-7\6-6\4--4\2-2-- 
A----------------------------------------------------------------------------------------- 
E--0--0----------------------------------------------------------------------------------- 
 
Verse 
G----------------------------- 
D------------------------4---- 
A--6--6-4--4h6------4-6------- 
E--------------4--6----------- 
 
repeat Chorus till end (fade out) 

Compartilhe esta música: novo

QR Code
Copiar