Flying High Again

Ozzy Osbourne

Tom: Eb Ab Db Gb
Afinar em 1/2 : (Eb Ab Db Gb) 
 
Play 4 times 
|------------------------|-------------------------| 
|------------------------|-------------------------| 
|------------------------|-------------------------| 
|5--------------5--------|--0--2--------5----------| 
 
 
|----------------|-------------------|-----------------|-------------------| 
|----------------|-------------------|-----------------|-------------------| 
|----------------|-------------------|-----------------|-------------------| 
|5-5-5-5-5-5-5-5-|-5-5-5-5-0-2-3-4-5-|-5-5-5-5-5-5-5-5-|-5-5-5-5-0-2-3-4-5-| 
 
|----------------|-----------------|-----------------|-----------------------| 
|----------------|-----------------|-----------------|/12-12-11-11-9-9-7-7-7-| 
|9-9-9-9-9-9-9-9-|-9-9-9-9-9-9-9-9-|-5-5-5-5-5-5-5-5-|-----------------------| 
|----------------|-----------------|-----------------|-----------------------| 
 
 
|--------------------|----------------------------|-----------------| 
|--------------------|----------------------------|-----------------| 
|-----------------/12|-12-12-12-12-12-12-12-12-12\|-----------------| 
|5-5-5-5-5-5-5-------|----------------------------|-5-5-5-5-5-5-5-5-| 
 
Guitar solo:                                                                                          
|------------------------------|---------------|----------------|----------------------| 
|--------------------------9-11|--------*-/----|----------------|/12-12-11-11-9-9-7-7-*| 
|9-9-11-11-12-12---------------|--------/-*----|5-5-5-5-5-5-5-5-|---------------------*| 
|------------------------------|---------------|----------------|----------------------| 
 
|-------------------------|-----------------|-----------------| 
|-------------------------|-----------------|-----------------| 
|/12-12-12-12-12-12-12-12-|\8-8-8-8-8-8-8-8-|\5-5-5-5-5-5-5-5-| 
|-------------------------|-----------------|-----------------| 
 
|-----------------|-------------------------|------------------| 
|-----------------|-------------------------|------------------| 
|\1-1-1-1-1-1-1-1-|-------------------------|------------------| 
|-----------------|/12-12-12-12-12-12-12-12-|-\8-8-8-8-8-8-8-8-| 
 
|-----------------|-----------------| 
|-----------------|-----------------| 
|-----------------|-----------------| 
|\5-5-5-5-5-5-5-5-|\1-1-1-1-1-1-1-1-| 
 
add por [email protected] 

Compartilhe esta música: novo

QR Code
Copiar