Devil's Daughter

Ozzy Osbourne

Intro 
Gb---------|--------------------------------------------------------- 
Db---------|--------------------------------------------------------- 
Ab----R----|--0-0-0-0-0-0-0-0-0-0-0-0-0-0-0-0-0-0-0-/-121212121212\-- 
Eb---------|--------------------------------------------------------- 
 
Gb-------------------------------------------- 
Db----------------------------7-5------------- 
Ab--0-0-0-0-0-0-0-0-0-0-0-0-0-----7-5-3------- 
Eb--------------------------------------3----- 
 
Verse x 2 
Gb------------------------------------------------------- 
Db------------------------------------------------------- 
Ab-0-0--0-0-0--0-0-0--0-0-0--0-0-0--0-0-0--0-0-0--0-0-0-- 
Eb------------------------------------------------------- 
 
(continued) x 2 
Gb-------------------------------------------------------- 
Db-------------------------------------------------------- 
Ab--0-0--0-0-0--0-0-0--0-0-0--0-0-0--0-0-0--0-0-0--0-0-0-- 
Eb-------------------------------------------------------- 
 
Pre-Chorus 
Gb----------------5---8-5---------------------------- 
Db--------------7---7-----7-------------------------- 
Ab--5---5---0----------------5---5------------------- 
Eb-----------------------------------1--1-1-1-1-1-1-- 
 
			    'Break down.....Break down......Break down and Cry....' 
Gb----------------5---8-5------------------------------------------------------------------- 
Db--------------7---7-----7--------------------------------------------------------(2)---\-- 
Ab--5---5---0------------------------------------------------------------------------------- 
Eb---------------------------3-3-3-3-3-3-3-3-2-2-2-2-2-2-2-2-1-1-1-1-1-1-1-1---0------------ 
 
Chorus 
Gb----------------------------------------------------------- 
Db----------------------------------------------------------- 
Ab--0-0-0-0-0-0-0-0-0-0-0-0-0-0-0-0-0-0-0-/-12121212121212\-- 
Eb----------------------------------------------------------- 
 
Gb-------------------------------------------- 
Db----------------------------7-5------------- 
Ab--0-0-0-0-0-0-0-0-0-0-0-0-0-----7-5-3------- 
Eb--------------------------------------3----- 
 
repeat Verse x 2 
repeat Pre-Chorus 
repeat Chorus x 2 
 
Interlude 
Gb--------------------------- 
Db--------------------------- 
Ab--------------------------- 
Eb--5-----3-----5-----2---1-- 
 
Pre-Solo 
Gb----------------------------------------------- 
Db----------------------------------------------- 
Ab------------------------------------4---2--0--- 
Eb--2-0-2----2-0-2----2-0-2----2-0-2------------- 
 
Solo x 4			      4th time ending 
Gb-----------------------------------|-------- 
Db-----------------------------------|-------- 
Ab--4-4-4-4-4-4-4-4-4-4-4-4-0-0-2-2--|--2--0-- 
Eb-----------------------------------|-------- 
 
Solo x 4			    4th time ending 
Gb---------------------------------|----------- 
Db---------------------------------|----------- 
Ab---------------------------2--2--|--4--2--0-- 
Eb--2-2-2-2-2-2-2-2-2-2-2-2--------|----------- 
 
Solo 
Gb------------------------------------------------------------- 
Db------------------------------------------------------------- 
Ab----------------------------------------------------4--2--0-- 
Eb--3-3-3-3-3-3-3-3-2-2-2-2-2-2-2-2-1-1-1-1-1-1-1-1------------ 
 
Gb------------------------------------------------------------------- 
Db------------------------------------------------------------------- 
Ab------------------------------------------------------------------- 
Eb--3-3-3-3-3-3-3-3-2-2-2-2-2-2-2-2-1-1-1-1-1-1-1-1-0-0-0-0-0-0-0-0-- 
 
repeat Chorus for the Solo 
repeat Verse x 2 
repeat Pre-Chorus 
 
Chorus Outro x 4 
Gb----------------------------------------------------------- 
Db----------------------------------------------------------- 
Ab--0-0-0-0-0-0-0-0-0-0-0-0-0-0-0-0-0-0-0-/-12121212121212\-- 
Eb----------------------------------------------------------- 

Compartilhe esta música: novo

QR Code
Copiar