Don't Look Back in Anger

Oasis

Tom: C
Chorus/Verse: 
G|----------------------------------------------------------------- 
D|----------------------------------------------------------------- 
A|-3-3-3-3-----------------------------------------3-3-3-3---------  
E|---------3-3-3-3-5-5-5-5-0-0-0-0-1-1-1-1-3-3-3-3---------5-5-3-3-   


Bridge (So I start...)/Solo:    (play 3X) 
G|----------------------------------------------------------------- 
D|----------------------------------------------------------------- 
A|-----------------3-3-3-3-3-3-3-3--------------------------------- 
E|-1-1-1-1-1-1-1-1------------------------------------------------- 

then, this once 
G|----------------------------------------------------------------- 
D|----------------------------------------------------------------- 
A| 
E|-3-3-3-3-3-3-3-3-4-4-4-4-4-4-4-4-5-5-5-5-3-3-3-3-1-1-1-1-1-1-1-1- 

(cont.) 
E|-3-3-3-3-3-3-3-3- 


That's the song.  

Compartilhe esta música: novo

QR Code
Copiar