Jai Vu

Niagara

 |: 2x                                                               
Intro 
G|----------------|----------------|----------------|----------------| 
D|----------------|----------------|----------------|----------------| 
A|------------5---|------------5-7-|------------5---|-------7-5------| 
E|0-+-0-+--67---7-|0-+-0-+--67-----|0-+-0-+--67---7-|0-+-0-+---7-3---| 

G|----------------|----------------|----------------|----------------| 
D|----------------|----------------|----------------|----------------| 
A|------------5---|------------5-7-|------------5---|-------7-5------| 
E|0-+-0-+--67---7-|0-+-0-+--67-----|0-+-0-+--67---7-|0-+-0-+---7-3---| 

Verse 
G|----------------|----------------|----------------|----------------| 
D|----------------|----------------|----------------|----------------| 
A|------------5---|------------5---|------------5---|------------5---| 
E|0-0-0-+--67---7-|0-0-0-+--67---7-|0-0-0-+--67---7-|0-0-0-+--67---7-| 

G|----------------|----------------|----------------|----------------| 
D|----------------|----------------|----------------|----------------| 
A|------------5---|------------5---|------------5---|----------------| 
E|0-0-0-+--67---7-|0-0-0-+--67---7-|0-0-0-+--67---7-|0-0-3-3-5-5-6-6-| 

G|----------------|----------------|----------------|----------------| 
D|----------------|----------------|----------------|----------------| 
A|----------------|----------------|----------------|----------------| 
E|7-5-7-+--55-7-5-|7-5-7-+--55-7-5-|7-5-7-+--55-7-5-|7-5-7-+--55-7-5-| 

Chorus 
G|----------------|----------------|----------------|----------------| 
D|----------------|----------------|----------------|----------------| 
A|7-+-7-+-----5-7-|----------------|7-+-7-+-----5-7-|----------------| 
E|---------67-----|5-+-5-+--33-53--|---------67-----|5-+-5-+--33-53--|  

                                                                 2x :| 
G|----------------|----------------|----------------|----------------| 
D|----------------|----------------|----------------|----------------| 
A|7-+-7-+-----5-7-|----------------|7-+-7-+-----5-7-|----------------| 
E|---------67-----|5-+-5-+--33-53--|---------67-----|5-+-5-+--33-53--| 

Solo 
G|----------------|----------------|----------------|----------------| 
D|----------------|----------------|----------------|----------------| 
A|------------5---|------------5---|------------5---|------------5---| 
E|0-0-0-+--67---7-|0-0-0-+--67---7-|0-0-0-+--67---7-|0-0-0-+--67---7-| 
                                            
G|----------------|----------------|----------------|----------------| 
D|----------------|----------------|----------------|----------------| 
A|------------5---|------------5---|------------5---|------------5---| 
E|0-0-0-+--67---7-|0-0-0-+--67---7-|0-0-0-+--67---7-|0-0-0-+--67---7-| 


G|----------------|----------------|----------------|----------------| 
D|----------------|----------------|----------------|----------------| 
A|----------------|----------------|----------------|----------------| 
E|7-5-7-+--55-7-5-|7-5-7-+--55-7-5-|7-5-7-+--55-7-5-|7-5-7-+--55-7-5-| 

 |: 4x                                                           4x :| 
Chorus 
G|----------------|----------------|----------------|----------------| 
D|----------------|----------------|----------------|----------------| 
A|7-+-7-+-----5-7-|----------------|7-+-7-+-----5-7-|----------------| 
E|---------67-----|5-+-5-+--33-53--|---------67-----|5-+-5-+--33-53--| 

Compartilhe esta música: novo

QR Code
Copiar