Superman

Lazlo Bane

Tom: F#
Tuning: Standart (E A D G) 
Tabbed by: OnassBass 
 
 
Intro: 
|-----| 
|-----| 
|-----| 
|-0-1-| 
 
Chorus/Verse: 
|----------------------| 
|-----4----------------| 
|----4-4--1-2--22-2--4-| 
|-2-----2--------------| 
 
Verse End: 
|----------------------| 
|-----4----------------| 
|----4-4--1-2--22-2--1-| 
|-2-----2--------------| 
 
PreChorus: 
|-------------------------------------------------------------| 
|-------------------------------------------------------------| 
|-------4-4---4------4-4--4-6--6-6-4--4-4-3--3-3------2--2-4--| 
|-4--4-4-------4--4-4----------------------------4--4---------| 
 
Chorus 2x 
 
Verse 3x 
Verse End 
 
PreChorus 
 
Chorus 1x 
Verse End 
 
Solobackground: 
|-------------------------------------------------------------------------------| 
|-------------------------------------------------------------------------------| 
|---------664--44-4-----------44-6----4-44----3------------2--22-2---4--44-4//9-| 
|-4--44-4-----------124--44-4-----------------------4-44------------------------| 
 
Slide: 
|----| 
|----| 
|----| 
|-/-| 
 
Verse 
Verse End 
 
|-----------------------------------------------------| 
|-----------------------------------------------------| 
|-------4-4---4------4-4--4-6--6-6-4--4-4-3--3-3------| 
|-4--4-4-------4--4-4----------------------------4--4-| 
 
|------------------------------------------------| 
|------------------------------------------------| 
|-6--6-6-4--4-4-3--3-3-/11-11--14-13-11-9-8-6-4--| 
|------------------------------------------------| 
 
Chorus 7x 
 
 

Compartilhe esta música: novo

QR Code
Copiar