The Loco-motion

Kylie Minogue

 
Intro: 
G|-----------------|-------------------------------------------------| 
D|-SPECIAL EFFECTS-|-------------------------------------------------| 
A|--START 8 BARS---|-6--6--6--6--6--6--6--6---6--6--6--6--6--6--6--6-| 
E|-----------------|-------------------------------------------------| 

verse 1: 
G|------------------------------------------------------------------------| 
D|------------------------------------------------------------------------| 
A|-6--6--6--6--------------6--6--6--6--------------6--6--6--6-------------| 
E|-------------8--8--8--8--------------8--8--8--8--------------8--8--8--8-| 

G|------------------------------------------------------------------------| 
D|-------------------------6--6--6--6--------------6--6--6--6-------------| 
A|-6--6--6--6--------------------------8--8--8--8--------------8--8--8--8-| 
E|-------------8--8--8--8-------------------------------------------------| 

G|----------------------------------------------------------------------| 
D|----------------------------------------------------------------------| 
A|-6--6--6--6-------------6--6--6--6--6--6--6--6------------------------| 
E|------------6--6--6--6-------------------------4--4--4--4--4--4--4--4-| 

G|------------------------------------------------| 
D|------------------------------------------------| 
A|-6--6--6--6--6--6--6--6-------------------------| 
E|-------------------------6--6--6--6--6--6--6--6-| 

verse 2: 
G|------------------------------------------------------------------------| 
D|------------------------------------------------------------------------| 
A|-6--6--6--6--------------6--6--6--6--------------6--6--6--6-------------| 
E|-------------8--8--8--8--------------8--8--8--8--------------8--8--8--8-| 

G|------------------------------------------------------------------------| 
D|-------------------------6--6--6--6--------------6--6--6--6-------------| 
A|-6--6--6--6--------------------------8--8--8--8--------------8--8--8--8-| 
E|-------------8--8--8--8-------------------------------------------------| 

G|----------------------------------------------------------------------| 
D|----------------------------------------------------------------------| 
A|-6--6--6--6-------------6--6--6--6--6--6--6--6------------------------| 
E|------------6--6--6--6-------------------------4--4--4--4--4--4--4--4-| 

                                                (Break) 
G|------------------------------------------------| 
D|------------------------------------------------| 
A|-6--6--6--6--6--6--6--6-------------------------| 
E|-------------------------6--6--6--6--6--6--6--6-| 

verse 3: 
G|------------------------------------------------------------------------| 
D|------------NO BASS-------------------------NO BASS---------------------| 
A|------------------------------------------------------------------------| 
E|------------------------------------------------------------------------| 

G|------------------------------------------------------------------| 
D|-------------------6--6--6--6--------------6--6--6--6-------------| 
A|-----NO BASS-------------------8--8--8--8--------------8--8--8--8-| 
E|------------------------------------------------------------------| 

G|----------------------------------------------------------------------| 
D|----------------------------------------------------------------------| 
A|-6--6--6--6-------------6--6--6--6--6--6--6--6------------------------| 
E|------------6--6--6--6-------------------------4--4--4--4--4--4--4--4-| 

G|------------------------------------------------| 
D|------------------------------------------------| 
A|-6--6--6--6--6--6--6--6-------------------------| 
E|-------------------------6--6--6--6--6--6--6--6-| 

verse 4: 
G|------------------------------------------------------------------------| 
D|------------------------------------------------------------------------| 
A|-6--6--6--6--------------6--6--6--6--------------6--6--6--6-------------| 
E|-------------8--8--8--8--------------8--8--8--8--------------8--8--8--8-| 

G|------------------------------------------------------------------------| 
D|-------------------------6--6--6--6--------------6--6--6--6-------------| 
A|-6--6--6--6--------------------------8--8--8--8--------------8--8--8--8-| 
E|-------------8--8--8--8-------------------------------------------------| 

G|------------------------------------------------------------------| 
D|------------------------------------------------------------------| 
A|-6--6--6----------------6--6--6----------------6--6--6------------| 
E|---------6--6--6--6--6----------6--6--6--6--6----------6--6--6--6-| 

Outro:  (Repeat Outro To Fade/End) 
G|------------------------------------------------| 
D|-------------------------6--6--6--6--6--6--6--6-| 
A|-6--6--6--6--6--6--6--6-------------------------| 
E|------------------------------------------------| 

Compartilhe esta música: novo

QR Code
Copiar