Poslednji Dub

Kali Fat Dub

verse 1 

G|-------------------------------------------------------------------------------------------| 
D|-------------------------------------------------------------------------------------------| 
A|1--1-1--1--1--1-1-4-4--1--1-1--1--1--1-1-3-4--3--3-3--3--3--3-3-1-4--3--3-3--3--3--3-3-4-4-| 
E|-------------------------------------------------------------------------------------------| 


Chorus 

G|-------------------------------------------------------------------------------------------| 
D|-------------------------------------------------------------------------------------------| 
A|1--1-1--1--1--1-1-4-4--1--1-1--1--1--1-1-3-4--3--3-3--3--3--3-3-1-4--3--3-3--3--3--3-3-4-4-| 
E|-------------------------------------------------------------------------------------------| 


verse 2 

G|-------------------------------------------------------------------------------------------| 
D|-------------------------------------------------------------------------------------------| 
A|1--1-1--1--1--1-1-4-4--1--1-1--1--1--1-1-3-4--3--3-3--3--3--3-3-1-4--3--3-3--3--3--3-3-4-4-| 
E|-------------------------------------------------------------------------------------------| 


Chorus 

G|-------------------------------------------------------------------------------------------| 
D|-------------------------------------------------------------------------------------------| 
A|1--1-1--1--1--1-1-4-4--1--1-1--1--1--1-1-3-4--3--3-3--3--3--3-3-1-4--3--3-3--3--3--3-3-4-4-| 
E|-------------------------------------------------------------------------------------------| 



verse 3 

G|-------------------------------------------------------------------------------------------| 
D|-------------------------------------------------------------------------------------------| 
A|1--1-1--1--1--1-1-4-4--1--1-1--1--1--1-1-3-4--3--3-3--3--3--3-3-1-4--3--3-3--3--3--3-3-4-4-| 
E|-------------------------------------------------------------------------------------------| 


Chorus 

G|-------------------------------------------------------------------------------------------| 
D|-------------------------------------------------------------------------------------------| 
A|1--1-1--1--1--1-1-4-4--1--1-1--1--1--1-1-3-4--3--3-3--3--3--3-3-1-4--3--3-3--3--3--3-3-4-4-| 
E|-------------------------------------------------------------------------------------------| 


Outro 

G|-------------------------------------------------------------------------------------------| 
D|-------------------------------------------------------------------------------------------| 
A|1--1-1--1--1--1-1-4-4--1--1-1--1--1--1-1-3-4--3--3-3--3--3--3-3-1-4--3--3-3--3--3--3-3-4-4-| 
E|-------------------------------------------------------------------------------------------| 

 

Compartilhe esta música: novo

QR Code
Copiar