A Couple

Juicy J

Chorus starting from 00:13 

F|----------------------------|----------------------------| 
C|----------------------------|----------------------------| 
G|--0---------0---------------|--0--------0----------------| 
D|----------------------------|----------------------------| 

F|----------------------------|----------------------------| 
C|----------------------------|----------------------------| 
G|----------------------------|-----------------3------3---| 
D|--1---------1---------------|--1--------3--0-------------| 

F|----------------------------|----------------------------| 
C|----------------------------|----------------------------| 
G|--0---------0---------------|--0--------0----------------| 
D|----------------------------|----------------------------| 

F|----------------------------|----------------------------| 
C|----------------------------|----------------------------| 
G|----------------------------|-----------------3------3---| 
D|--1---------1---------------|--1--------3--0-------------| 

verse 1 

F|----------------------------|----------------------------| 
C|----------------------------|----------------------------| 
G|--0---------0---------------|--0--------0----------------| 
D|----------------------------|----------------------------| 

F|----------------------------|----------------------------| 
C|----------------------------|----------------------------| 
G|----------------------------|-----------------3------3---| 
D|--1---------1---------------|--1--------3--0-------------| 

F|----------------------------|----------------------------| 
C|----------------------------|----------------------------| 
G|--0---------0---------------|--0--------0----------------| 
D|----------------------------|----------------------------| 

F|----------------------------|----------------------------| 
C|----------------------------|----------------------------| 
G|----------------------------|-----------------3------3---| 
D|--1---------1---------------|--1--------3--0-------------| 

F|----------------------------|----------------------------| 
C|----------------------------|----------------------------| 
G|--0---------0---------------|--0--------0----------------| 
D|----------------------------|----------------------------| 

F|----------------------------|----------------------------| 
C|----------------------------|----------------------------| 
G|----------------------------|-----------------3------3---| 
D|--1---------1---------------|--1--------3--0-------------| 

Chorus 

F|----------------------------|----------------------------| 
C|----------------------------|----------------------------| 
G|--0---------0---------------|--0--------0----------------| 
D|----------------------------|----------------------------| 

F|----------------------------|----------------------------| 
C|----------------------------|----------------------------| 
G|----------------------------|-----------------3------3---| 
D|--1---------1---------------|--1--------3--0-------------| 

F|----------------------------|----------------------------| 
C|----------------------------|----------------------------| 
G|--0---------0---------------|--0--------0----------------| 
D|----------------------------|----------------------------| 

F|----------------------------|----------------------------| 
C|----------------------------|----------------------------| 
G|----------------------------|-----------------3------3---| 
D|--1---------1---------------|--1--------3--0-------------| 

verse 2 

F|----------------------------|----------------------------| 
C|----------------------------|----------------------------| 
G|--0---------0---------------|--0--------0----------------| 
D|----------------------------|----------------------------| 

F|----------------------------|----------------------------| 
C|----------------------------|----------------------------| 
G|----------------------------|-----------------3------3---| 
D|--1---------1---------------|--1--------3--0-------------| 

F|----------------------------|----------------------------| 
C|----------------------------|----------------------------| 
G|--0---------0---------------|--0--------0----------------| 
D|----------------------------|----------------------------| 

F|----------------------------|----------------------------| 
C|----------------------------|----------------------------| 
G|----------------------------|-----------------3------3---| 
D|--1---------1---------------|--1--------3--0-------------| 

F|----------------------------|----------------------------| 
C|----------------------------|----------------------------| 
G|--0---------0---------------|--0--------0----------------| 
D|----------------------------|----------------------------| 

F|----------------------------|----------------------------| 
C|----------------------------|----------------------------| 
G|----------------------------|-----------------3------3---| 
D|--1---------1---------------|--1--------3--0-------------| 

Chorus 

F|----------------------------|----------------------------| 
C|----------------------------|----------------------------| 
G|--0---------0---------------|--0--------0----------------| 
D|----------------------------|----------------------------| 

F|----------------------------|----------------------------| 
C|----------------------------|----------------------------| 
G|----------------------------|-----------------3------3---| 
D|--1---------1---------------|--1--------3--0-------------| 

F|----------------------------|----------------------------| 
C|----------------------------|----------------------------| 
G|--0---------0---------------|--0--------0----------------| 
D|----------------------------|----------------------------| 

F|----------------------------|----------------------------| 
C|----------------------------|----------------------------| 
G|----------------------------|-----------------3------3---| 
D|--1---------1---------------|--1--------3--0-------------| 

Outro 

F|----------------------------|----------------------------| 
C|----------------------------|----------------------------| 
G|--0---------0---------------|--0--------0----------------| 
D|----------------------------|----------------------------| 

F|----------------------------|----------------------------| 
C|----------------------------|----------------------------| 
G|----------------------------|-----------------3------3---| 
D|--1---------1---------------|--1--------3--0-------------| 

Compartilhe esta música: novo

QR Code
Copiar