Dias Melhores

Jota Quest

Tom: G
 Baixo entra no finalzinho dessa parte da letra. 
 
   ' Vivemos esperando 
     Dias melhores 
     Dias de paz, dias a mais 
     Dias que não deixaremos para trás...' 
 
 
> Frase 1    
                         __                                    __      
G:---------------------    | \  /     G:---------------------    | \  /      
D:---------------------  __|  \/      D:---------------------  __|  \/   
A:--------------------- |     /\      A:--------------------- |     /\  
E:--3-3-3---3-3-3-3-3-- |__  /  \     E:--0-0-0---0-0-0-0-0-- |__  /  \ 
< 
 
> Frase 2    
                         __         
G:---------------------    | \  /     G:------------------------------------------- 
D:---------------------  __|  \/      D:------------0-1-2-------------------------- 
A:--------------------- |     /\      A:----------2-------2------------------------ 
E:--3-3-3---3-3-3-3-3-- |__  /  \     E:--0-0-0-------------0---0-0-0---0-0-0-0-0-- 
< 
 
> Frase 3  
                        __               
G:---------------------    | \  /     G:----------------------------------------- 
D:---------------------  __|  \/      D:----------------------------------------- 
A:--------------------- |     /\      A:----------------------------------------- 
E:--3-3-3---3-3-3-3-3-- |__  /  \     E:--0-0-0---0-0-0-0-0---2-2-2---2-2-2-2-2-- 
< 
 
> Frase 4 
            x x x 
G:----------5-------------------------------- 
D:------------5------------------------------ 
A:--------------5---------------------------- 
E:--3-3-3---------3-3-3---3-3-3---3-3-3-3-3-- 
< 
 
> Frase 5 
 
G:-------------------------------------------------- 
D:------------0-1-2--------------------------------- 
A:----------2-------2------------------------------- 
E:--0-0-0-------------0---0-0-0---0-0-0-0-0-0-/15\-- 
< 
 
> Frase 6  
                                       __                           x 
G:----------------------------------- /  \ \  /     G:----------------- 
D:-----------------------------------   _/  \/      D:----------7---5-- 
A:--3-3-3-3-3-3/7--------------------    \  /\      A:------7---7------ 
E:------------------7-7-7-7-7-7-7-7-- \__/ /  \     E:--5-8-----5------ 
< 
 
> Refrão  
                                       __        
G:----------------------------------- /  \ \  /  
D:-----------------------------------   _/  \/    
A:------------------3-3-3-3-3-3-3-3--    \  /\     
E:--3-3-3-3-3-3-3-3------------------ \__/ /  \     
< 
 
G:----- 
D:----- 
A:-----  
E:--3--  
 
 
 Aguarda a chamada e depois entra. 
 
 
G:----------- 
D:----------- 
A:----------- 
E:--/15-15\-- 
 
>>> Frase 1 - 2 vezes < 
 
>>> Frase 3 < 
 
>                       x x x 
G:----------------------5------------------------ 
D:------------------------5---------------------- 
A:--------------------------5-------------------- 
E:--3-3-3---3-3-3-3-3---------3-3-3---3-3-3-3-3-- 
< 
 
>>> Frase 5 < 
 
>>> Frase 2 < 
 
>>> Frase 3 < 
 
>                             x x x 
G:----------------------------5------------ 
D:------------------------------5---------- 
A:--------------------------------5-------- 
E:--3-3-3---3-3-3-3-3---3-3-3-------3-3-3-- 
 
G:---------------------------------------------------- 
D:---------------------------------------------------- 
A:---------------------------------------------------- 
E:--0-0-0---0-0-0-0-0---0---0-0-0---0-0-0-0-0-0-/15\-- 
< 
 
>>> Frase 6 < 
 
>                                      __   
G:----------------------------------- |  | \  /  
D:-----------------------------------    |  \/   
A:------------------3-3-3-3-3-3-3-3--    |  /\    
E:--3-3-3-3-3-3-3-3------------------    | /  \ 
< 
 
> Final  
 
G:-------------------------------------------- 
D:--------5/7-5--------5--5/7----------------- 
A:------5---------------------7--------/7-5--- 
E:--3-3--------------------------------------- 
 
G:--------------------------------------/9--------- 
D:--------5/7-5--------5--7-7/9-7--5--7------7\---- 
A:------5------------------------------------------ 
E:--3-3-----------------------------------------3-- 
< 

Compartilhe esta música: novo

QR Code
Copiar