Main Vein

Jamiroquai

Intro  
|-------------|  
|-------------|  
|-55-55-55-55-| x2  
|-------------|  

Main Riff  
|----------------------5-7--------|  
|-----33--------------------------|  
|-3-5-----5-3-55---3-5-----5-3-55-| x heaps  
|---------------------------------|  

Chorus  
|----11-11---11---11-|----------------|  
|--------------------|---4--------2-3-|  
|-99-------9----9----|-----4--2-3-----| x2  
|--------------------|-2--------------|  

Main Riff  
|----------------------5-7--------|  
|-----33--------------------------|  
|-3-5-----5-3-55---3-5-----5-3-55-| x heaps  
|---------------------------------|  

Chorus  
|----11-11---11---11-|----------------|  
|--------------------|---4--------2-3-|  
|-99-------9----9----|-----4--2-3-----| x2  
|--------------------|-2--------------|  

Bass solo  
|----------------------5-7--------|  
|-----33--------------------------|  
|-3-5-----5-3-55---3-5-----5-3-55-| x?  
|---------------------------------|  

Bridge  
|-------------------------------------|  
|---5--------7------------------------|  
|-----5--------7----5-5--5---5-5--5---| x?  
|-3-----3--5-----5---------4--------4-|  

Compartilhe esta música: novo

QR Code
Copiar