Parece Castigo (solo)

Hugo Pena e Gabriel

e|---9/11-11-11-11--------9-9-12-11-9-7---------------------------------------------------------|  
B|-------------12-----------------10-12--------------9/12-12-12-12----12-12-14-12-11-9----------|  
G|---------------------------------------------------------------13-15--------------------------|  
D|----------------------------------------------------------------------------------------------|  
A|----------------------------------------------------------------------------------------------|  
E|----------------------------------------------------------------------------------------------|  

e|----------------------------------------------------------------------------------------------|  
B|-7/9-9-9-9------------11-9-------------9/11-11-11-11-------11-11-12-14-12-11-12---------------|  
G|-----------10-11-13-13-------11-13-15----------------12-13------------------------------------|  
D|----------------------------------------------------------------------------------------------|  
A|----------------------------------------------------------------------------------------------|  
E|----------------------------------------------------------------------------------------------|  

Compartilhe esta música: novo

QR Code
Copiar