Dear Miss Lonely Hearts

Hanoi Rocks

-------------------------------------------------------------------------------- 
                Dear Miss Lonely Hearts - Hanoi Rocks  
-------------------------------------------------------------------------------- 

From the Album : Another Hostile Takeover (2005) 

Intro 

G|--------------------------------------------------------------------| 
D|--------------------------------------------------------------------| 
A|--7---7~--------------------------4---4~----------------------------| 
E|--------------------------------------------------------------------| 

G|--------------------------------------------------------------------| 
D|--------------------------------------------------------------------| 
A|--------------------------------------------------------------------| 
E|--5---5~--------------------------7---7~---------------------/19\---| 

verse 1 

G|--------------------------------------------------------------------| 
D|--------------------------------------------------------------------| 
A|--7-7-7-7-7-7-7-7-7-7-7-7-7-7-7-7-4-4-4-4-4-4-4-4-4-4-4-4-4-4-4-4---| 
E|--------------------------------------------------------------------| 

G|--------------------------------------------------------------------| 
D|--------------------------------------------------------------------| 
A|--------------------------------------------------------------4-6---| 
E|--5-5-5-5-5-5-5-5-5-5-5-5-5-5-5-5-7-7-7-7-7-7-7-7-7-7-7-7-7-7-------| 

G|--------------------------------------------------------------------| 
D|--------------------------------------------------------------------| 
A|--7-7-7-7-7-7-7-7-7-7-7-7-7-7-7-7-4-4-4-4-4-4-4-4-4-4-4-4-4-4-4-4---| 
E|--------------------------------------------------------------------| 

G|--------------------------------------------------------------------| 
D|--------------------------------------------------------------------| 
A|--------------------------------------------------------------------| 
E|--5-5-5-5-5-5-5-5-5-5-5-5-5-5-5-5-7-7-7-7-7-7-7-7-7-7-5-5-4-4-2-2---| 

Chorus 

G|--------------------------------------------------------------------| 
D|--------------------------------------------------------------------| 
A|----------------------------------4-4-4-4-4-4-4-4-4-4-4-4-4-4-4-4---| 
E|--0-0-0-0-0-0-0-0-0-0-0-0-0-0-2-4-----------------------------------| 

G|--------------------------------------------------------------------| 
D|--------------------------------------------------------------------| 
A|------------------------------------------------------4-4-5-5-6-6---| 
E|--5-5-5-5-5-5-5-5-5-5-5-5-5-5-5-5-7-7-7-7-7-7-7-7-7-7---------------| 

verse 2 

G|--------------------------------------------------------------------| 
D|--------------------------------------------------------------------| 
A|--7-7-7-7-7-7-7-7-7-7-7-7-7-7-7-7-4-4-4-4-4-4-4-4-4-4-4-4-4-4-4-4---| 
E|--------------------------------------------------------------------| 

G|--------------------------------------------------------------------| 
D|--------------------------------------------------------------------| 
A|--------------------------------------------------------------4-6---| 
E|--5-5-5-5-5-5-5-5-5-5-5-5-5-5-5-5-7-7-7-7-7-7-7-7-7-7-7-7-7-7-------| 

G|--------------------------------------------------------------------| 
D|--------------------------------------------------------------------| 
A|--7-7-7-7-7-7-7-7-7-7-7-7-7-7-7-7-4-4-4-4-4-4-4-4-4-4-4-4-4-4-6-7---| 
E|--------------------------------------------------------------------| 

G|--------------------------------------------------------------------| 
D|--------------------------------------------------------------------| 
A|--------------------------------------------------------------------| 
E|--5-5-5-5-5-5-5-5-5-5-5-5-5-4-5-6-7-7-7-7-7-7-7-7-7-7-5-5-4-4-2-2---| 

Chorus 

G|--------------------------------------------------------------------| 
D|--------------------------------------------------------------------| 
A|----------------------------------4-4-4-4-4-4-4-4-4-4-4-4-4-4-6-7---| 
E|--0-0-0-0-0-0-0-0-0-0-0-0-0-0-2-4-----------------------------------| 

G|--------------------------------------------------------------------| 
D|--------------------------------------------------------------------| 
A|--------------------------------------------------------------------| 
E|--5-5-5-5-5-5-5-5-5-5-5-5-5-5-5-5-7-7-7-7-7-7-7-7-7-7-5-5-4-4-2-2---| 

Guitar Solo 

G|--------------------------------------------------------------------| 
D|--------------------------------------------------------------------| 
A|----------------------------------4-4-4-4-4-4-4-4-4-4-4-4-4-4-4-4---| 
E|--0-0-0-0-0-0-0-0-0-0-0-0-0-0-0-0-----------------------------------| 

G|--------------------------------------------------------------------| 
D|--------------------------------------------------------------------| 
A|--------------------------------------------------------------------| 
E|--5-5-5-5-5-5-5-5-5-5-5-5-5-5-5-5-7-7-7-7-7-7-7-7-7-7-5-5-4-4-2-2---| 

G|--------------------------------------------------------------------| 
D|--------------------------------------------------------------------| 
A|----------------------------------4-4-4-4-4-4-4-4-4-4-4-4-4-4-4-4---| 
E|--0-0-0-0-0-0-0-0-0-0-0-0-0-0-2-4-----------------------------------| 

G|--------------------------------------------------------------------| 
D|--------------------------------------------------------------------| 
A|------------------------------------------------------4-4-5-5-6-6---| 
E|--5-5-5-5-5-5-5-5-5-5-5-5-5-3-5-6-7-7-7-7-7-7-7-7-7-7---------------| 

verse 3 

G|--------------------------------------------------------------------| 
D|--------------------------------------------------------------------| 
A|--7-7-7-7-7-7-7-7-7-7-7-7-7-7-7-7-4-4-4-4-4-4-4-4-4-4-4-4-4-4-6-7---| 
E|--------------------------------------------------------------------| 

G|---------------------------------------------------------------------| 
D|---------------------------------------------------------------------| 
A|---------------------------------------------------------------------| 
E|--5-5-5-5-5-5-5-5-5-5-5-5-5-5-5-5-7-7-7-7-7-7-7-7-7-7-7-7-7-7---19\--| 

G|--------------------------------------------------------------------| 
D|--------------------------------------------------------------------| 
A|----------------------------------4-4-4-4-4-4-4-4-4-4-4-4-4-4-6-7---| 
E|--0-0-0-0-0-0-0-0-0-0-0-0-0-0-0-0-----------------------------------| 

G|--------------------------------------------------------------------| 
D|--------------------------------------------------------------------| 
A|--------------------------------------------------------------------| 
E|--5-5-5-5-5-5-5-5-5-5-5-5-5-4-5-6-7-7-7-7-7-7-7-7-7-7-5-5-4-4-2-2---| 

Bridge 

G|--------------------------------------------------------------------| 
D|--------------------------------------------------------------------| 
A|--7-7-7\--------------------------4-4-4\----------------------------| 
E|--------------------------------------------------------------------| 

G|--------------------------------------------------------------------| 
D|--------------------------------------------------------------------| 
A|--------------------------------------------------------------------| 
E|--5-5-5-5-------------------------7-7\--7-7\--7-7-7-7-5-5-4-4-2-2---| 

Chorus 

G|--------------------------------------------------------------------| 
D|--------------------------------------------------------------------| 
A|----------------------------------4-4-4-4-4-4-4-4-4-4-4-4-4-4-6-7---| 
E|--0-0-0-0-0-0-0-0-0-0-0-0-0-0-2-4-----------------------------------| 

G|--------------------------------------------------------------------| 
D|--------------------------------------------------------------------| 
A|--------------------------------------------------------------------| 
E|--5-5-5-5-5-5-5-5-5-5-5-5-5-5-5-4-7-7-7-7-7-7-7-7-7-7-5-5-4-4-2-2---| 

G|--------------------------------------------------------------------| 
D|--------------------------------------------------------------------| 
A|----------------------------------4-4-4-4-4-4-4-4-4-4-4-4-4-4-6-7---| 
E|--0-0-0-0-0-0-0-0-0-0-0-0-0-0-2-4-----------------------------------| 

G|--------------------------------------------------------------------| 
D|--------------------------------------------------------------------| 
A|--------------------------------------------------------------------| 
E|--5-5-5-5-5-5-5-5-5-5-5-5-5-5-5-4-7-7-7-7-7-7-7-7-7-7-7-7-7-7-7-7---| 

G|--------------------------------------------------------------------| 
D|----------------------2---------------------------------------------| 
A|--------------------2---2-------------------------------------------| 
E|--7---5---4---2---0-------0~----------------------------------------| 


************************************ 

| /   Slide up 
| \   Slide down 
| ~   Hold note 

************************************ 

Compartilhe esta música: novo

QR Code
Copiar