Don't Cry

Guns N' Roses

Tom: Am
Baixo Don't cry: 
 
Introdução: 
(Espere a guitarra...) 
G|--------------------| 
D|--------------------| 
A|---3--2--3--2--0| 
E|--------------------| 
 
Música: 
G|-------------------------------| 
D|---2--0-----------------------| 
A|---------------3--2--3--2--0| 
E|-----------3-------------------| 
 
Refrão: 
G|----------------| 
D|-----------2----| 
A|---------------0| 
E|---1--3--------| 
 
Leandro Calil Duarte 

Compartilhe esta música: novo

QR Code
Copiar