Antonia

Gondwana

Tom: C
Intro: 
 
G|----------3---0---| 
D|-0----------------| 
A|------------------| 
E|------------------| 
 
Riff 1- Chorus- Verse 1- Chorus- Riff 2- Verse 2 
 
G|--------------------------------------------2-2------2-2---------------0--0---0-----| 
D|------5-5------5-5-2--2-----2--2-----2-0--0-----0--0-----3--3-0-3-0-3-------2---2-0-| 
A|-3--3-----3--3----------2-2------2-2------------------------------------------------|  x14 
E|------------------------------------------------------------------------------------| 
 
Te miro y veo todo... 
 
G|------2-0-2----2-0-2---------------------0-0-0-| 
D|-0--0--------0---------------------2-2-2-------| 
A|---------------------0-0-0--3-3-3--------------|  x3 
E|-----------------------------------------------| 
 
 
G|-----------------------0--0---0-----| 
D|-0-------3--3-0-3-0-3-------2---2-0-| 
A|------------------------------------| 
E|------------------------------------| 
 
Riff 3 
 
(Keep playing till the end.) 

Compartilhe esta música: novo

QR Code
Copiar