Absalon

Gondwana

Intro: 

D|-----------0--0--------------------------------| 
A|-------2--------2-0--2-2-2----2----2---2-2-2---| 
E|-2-3-3---3-----------------0----0----0---------| 

D|-----------------------------------------------| 
A|-0-0-0---0-2--2-0----0-0-2----2----2---2-2-2---| 
E|-------3----------3--------0----0----0---------| 

D|-----------0--0--------------------------------| 
A|-------2--------2-0--2-2-2----2----2---2-2-2---| 
E|-2-3-3---3-----------------0----0----0---------| 

D|-----------------------------------------------| 
A|-0-0-0---0-2--2-0----0-0-2----2----2---2-2-2---| 
E|-------3----------3--------0----0----0---------| 

Verse 1: 

D|-----------0--0--------------------------------| 
A|-------2--------2-0--2-2-2----2----2---2-2-2---| 
E|-2-3-3---3-----------------0----0----0---------| 

D|-----------------------------------------------| 
A|-0-0-0---0-2--2-0----0-0-2----2----2---2-2-2---| 
E|-------3----------3--------0----0----0---------| 

D|-----------0--0--------------------------------| 
A|-------2--------2-0--2-2-2----2----2---2-2-2---| 
E|-2-3-3---3-----------------0----0----0---------| 

D|-----------------------------------------------| 
A|-0-0-0---0-2--2-0----0-0-2----2----2---2-2-2---| 
E|-------3----------3--------0----0----0---------| 

Chorus: 

D|----------------0-0-0-0------------------------| 
A|---------------------------2----2----2---2-2-2-| 
E|--3-3-3-3--------------------0----0----0-------| 

D|----------------------------------------------2-0---| 
A|-0-0-0---0-2--2-0----0-0-2----2----2---2-2-2------2-| 
E|-------3----------3--------0----0----0--------------| 

D|-----------0--0--------------------------------| 
A|-------2--------2-0--2-2-2----2----2---2-2-2---| 
E|-2-3-3---3-----------------0----0----0---------| 

D|-----------------------------------------------| 
A|-0-0-0---0-2--2-0----0-0-2----2----2---2-2-2---| 
E|-------3----------3--------0----0----0---------| 

D|-----------0--0--------------------------------| 
A|-------2--------2-0--2-2-2----2----2---2-2-2---| 
E|-2-3-3---3-----------------0----0----0---------| 

D|-----------------------------------------------| 
A|-0-0-0---0-2--2-0----0-0-2----2----2---2-2-2---| 
E|-------3----------3--------0----0----0---------| 

Verse 2: 
D|----| 
A|----| 
E|----| 

D|-----------------------------------------------| 
A|-0-0-0---0-2--2-0----0-0-2----2----2---2-2-2---| 
E|-------3----------3--------0----0----0---------| 

D|-----------0--0--------------------------------| 
A|-------2--------2-0--2-2-2----2----2---2-2-2---| 
E|-2-3-3---3-----------------0----0----0---------| 

D|-----------------------------------------------| 
A|-0-0-0---0-2--2-0----0-0-2----2----2---2-2-2---| 
E|-------3----------3--------0----0----0---------| 

Chorus: 

D|----------------0-0-0-0------------------------| 
A|---------------------------2----2----2---2-2-2-| 
E|--3-3-3-3--------------------0----0----0-------| 

D|----------------------------------------------2-0---| 
A|-0-0-0---0-2--2-0----0-0-2----2----2---2-2-2------2-| 
E|-------3----------3--------0----0----0--------------| 

D|-----------0--0--------------------------------| 
A|-------2--------2-0--2-2-2----2----2---2-2-2---| 
E|-2-3-3---3-----------------0----0----0---------| 

D|-----------------------------------------------| 
A|-0-0-0---0-2--2-0----0-0-2----2----2---2-2-2---| 
E|-------3----------3--------0----0----0---------| 

D|-----------0--0--------------------------------| 
A|-------2--------2-0--2-2-2----2----2---2-2-2---| 
E|-2-3-3---------------------0----0----0---------| 

D|-----------------------------------------------| 
A|-0-0-0---0-2--2-0----0-0-2----2----2---2-2-2---| 
E|-------3----------3--------0----0----0---------| ..... 

Compartilhe esta música: novo

QR Code
Copiar