Take Me Out

Franz Ferdinand


 - 

Tabbed by ash

Im pretty sure this is correct or more correct than the other tabs on this site.
The interlude might be a bit off because the bass is really quiet on some 
parts but should still sound quite good. 

Normal tuning..
h - hammer on
p - pull off
/ - slide up
~ - let note ring

Intro:
Let ring until singing comes in,
G|----------------
D|----------------
A|-7~-------------
E|----------------

Singing starts:
G|----------77777777----------------------------   
D|-77777777----------5555-4444/1414141414141414-   
A|----------------------------------------------   
E|---------------------------------------------- (play 4 times)
                        
then:
G|---------------------------------------
D|-5555-7777-----------------------------
A|-----------77777777-5555-7755----------
E|------------------------------00000000-

G|---------------------------------------
D|-55555555------------------------------
A|----------55555555-33333333-00000000---
E|---------------------------------------

Slowdown bit:
G|---------------------------------------
D|---------------------------------------
A|-77777777-77777777-77777777-77777777---
E|---------------------------------------

Next riff:
G|---------------------------------
D|---------------------------------
A|-7---7---7---7p0-7---7---7---7p0-
E|--------------------------------- (play twice)

Main bass line (lyrics start again after 1 of these):
G|---------------------------------
D|--------------5---------------5--
A|-7---7---7---7---7---7---7---7---
E|---------------------------------

G|---------------------------------
D|---------------------------------
A|-------------------------------5-
E|-5---5---5---5-6-7---7---7---7--- (play 5 times)

Break:
G|---------------------------------
D|---------------------------------
A|-7---7---7---7p0-7---7---7---7p0-
E|---------------------------------

Interlude:
G|---------------------------------
D|-7-7-5-5-4-4---------------------
A|-------------7-7-5-5-3-3-5h775h77
E|--------------------------------- (play 4 times)


Main bass line:
G|---------------------------------
D|--------------5---------------5--
A|-7---7---7---7---7---7---7---7---
E|---------------------------------

G|---------------------------------
D|---------------------------------
A|-------------------------------5-
E|-5---5---5---5-6-7---7---7---7--- (play 2 times)
G|---------------------------------
D|--------------5---------------5--
A|-7---7---7---7---7---7---7---7---
E|---------------------------------

G|---------------------------------
D|---------------------------------
A|-------------------take me out!--
E|-5---5---5---5-6-7---------------
G|---------------------------------
D|--------------5---------------5--
A|-7---7---7---7---7---7---7---7---
E|---------------------------------

G|---------------------------------
D|---------------------------------
A|-------------------------------5-
E|-5---5---5---5-6-7---7---7---7---

Break:
G|---------------------------------
D|---------------------------------
A|-7---7---7---7p0-7---7---7---7p0-
E|---------------------------------

Interlude:
G|---------------------------------
D|-7-7-5-5-4-4---------------------
A|-------------7-7-5-5-3-3-5h775h77
E|--------------------------------- (play 4 times)

End:
G|---------------------------------
D|---------------------------------
A|-7---7---------------------------
E|---------------------------------

This a great song, with quite funky bass so learn it! 

oh and RATE THIS TAB if you used it!

Compartilhe esta música: novo

QR Code
Copiar