Times Like These

Foo Fighters

Tom: A



Title: 
 
Album: One by One
Bassist: Nate Mendal

Intro
G---------------------
D---------------------
A---------------------
E-10/0-10/0-10/0-0\10-

Intro/Interlude
G----------------------------------------------
D----------------------------------------------
A-55555555555555-33333333333333-22222222222222-
E----------------------------------------------

Pre-Verse/Pre-Chorus
G-----------------------
D-----------------------
A-0h550h5-0h550h5-0h55\-
E-----------------------

Verse
G-----------------------------------------------------
D-----------------------------------------------------
A-5555555555555555-0000000000000-------------77777777-
E--------------------------------77-88888888----------

Chorus
G----------------------------
D----------------------------
A-33333333-77777777-55555555-
E----------------------------

Bridge(2:24)
G------------------------------------------------------
D------------------------------------------------------
A------------------------------------------------------
E-1010-101010-101010-10101088-888-888-88877-777-777-77- x2

G-------------------------------------------------------------
D---------------10h12-10--10----------------------------------
A-----------------------12---10h12----------------------------
E-1010-101010-10------------------88-888-888-88877-777-777-77-

G-----------------------------------------------------------
D--------------------10-12/14\12----------------------------
A---------------10h12---------------------------------------
E-1010-101010-10----------------88-888-888-88877-777-777-77-

G-----------------------------------------------
D-----------------------------------------------
A-0h550h5-0h550h5-0h55\--0h550h5-0h550h5-0h55\--
E-----------------------------------------------

G-----------------------------------------------
D------------------------------------------4455-
A--0h550h5-0h550h5-0h55\--0h550h5-0h550h777-----
E-----------------------------------------------

Last Chorus
G------------------------------------------------------------
D------------------------------------------------------------
A-33333333-77777777-55555555-33333333-77777777-5557799/1010--
E------------------------------------------------------------x3

G-------------------------------------------------------
D------------779757-------------------------------------
A-33333333-77-------55555555-33333333-77777777-55555555-
E-------------------------------------------------------

Outro
G-------
D-------
A-3/7\5-
E-------

Compartilhe esta música: novo

QR Code
Copiar