Le Clochard

Focus




Tabbed by Cristobal Marcoleta F.
E-Mail: [email protected]


Have fun!!

    0:00
G---|-----------------|-----------------|-----------------|---------------------
D---|-----------------|-----------------|-----------------|---------------------
A---|--0--------0-----|--0--------5-----|--1--------2-----|--4--------0---------
D---|-----------------|-----------------|-----------------|---------------------



G---|-----------------|-----------------|-----------------|--------------|------
D---|-----------------|-----------------|-----------------|--------------|------
A---|--1--------0-----|-----------0-----|--1--------0-----|--------------|------
D---|-----------------|--5--------------|-----------------|--0-----------|------



G------------7-----|--7--------7-----|-----------------------|------------------
D------------------|-----------------|-----------------------|------------------
A---5--------------|-----------------|--5--------3-----1-----|--4---------------
D------------------|-----------------|-----------------------|------------------


    0:44
G---|-----------------|-----------------|-----------------|--------------|------
D---|-----------------|-----------------|-----------------|--------------|------
A---|--1--------0-----|-----------0-----|--1--------0-----|--5-----------|------
D---|-----------------|--5--------------|-----------------|--------------|------



G------------7-----|--7--------7-----|-----------------------|------------------
D------------------|-----------------|-----------------------|------------------
A---5--------------|-----------------|--5--------3-----1-----|--4---------------
D------------------|-----------------|-----------------------|------------------



G---|-----------------|-----------------|-----------------|---------------------
D---|-----------------|-----------------|-----------------|---------------------
A---|--1--------0-----|-----------0-----|--1--------0-----|---------------------
D---|-----------------|--5--------------|-----------------|--0------------------


    1:26                                Guitar            1:41
G---|--------------------|--------------|-----------------|---------------------
D---|--------------------|--------------|-----------------|---------------------
A---|--------------------|--------------|-----------------|--5--------0---------
D---|--3--------5--5-----|--2-----------|-----------------|---------------------



G---|--------------|-----------------||-----------------------------------------
D---|--------------|-----------------||-----------------------------------------
A---|--------------|-----------------||-----------------------------------------
D---|--0-----------|--0--------------||-----------------------------------------

Enjoy!!

Any comments, suggestions accepted thank you.

VIVA CHILE MIERDA!!
RUSH ON!!

'My spirits are low in the dephts of despair, my lifeblood spills over...'
Neil Peart - 2112


================================================================================
==                Created with a demo version of BUCKET O' TAB                ==
==                  tablature creation software for Windows                   ==
==                       http://www.his.com/~gse/bucket                       ==
================================================================================

Compartilhe esta música: novo

QR Code
Copiar