Too Many Hands

Eagles

Tom: E
Gtr I (E A D G) - 'Randy Meisner - Bass' 

   Intro 
   Q=168 
   4/4 
    Gtr I 
     Q.   Q.   Q    +Q   E E Q  E E   Q.   Q  E E E   E E Q  H     4x 
G||---------------|-----------------|---------------|--------------|| 
D||o-5----3-------|-----------------|-5----3------3-|-----3-------o|| 
A||o-----------5--|-(5)--3---5--3---|---------3-5---|-5-3----5----o|| 
E||---------------|--------5------5-|---------------|--------------|| 


  1st & 2nd Verses 
     H.      Q    +H     E E Q    H.      Q    +W 
G||-------------|------------5--|------------|--------| 
D||o------------|--------5-7----|------------|--------| 
A||o-5-------5--|-(5)-----------|-5-------5--|-(5)----| 
E||-------------|---------------|------------|--------| 


   Q.   Q.   Q    +Q   E E Q  E E   Q.   Q  E E E   E E Q  H 
G|--------------|-----------------|---------------|-------------| 
D|-5----3-------|-----------------|-5----3------3-|-----3-------| 
A|-----------5--|-(5)--3---5--3---|---------3-5---|-5-3----5----| 
E|--------------|--------5------5-|---------------|-------------| 


   H.      Q    +H     E E Q    H.      Q    +W 
G|------------|------------5--|------------|--------| 
D|------------|--------5-7----|------------|--------| 
A|-5-------5--|-(5)-----------|-5-------5--|-(5)----| 
E|------------|---------------|------------|--------| 


   Q.   Q.   Q    +Q   E E Q  E E   Q.   Q  E E E   E E Q  H 
G|--------------|-----------------|---------------|-------------|| 
D|-5----3-------|-----------------|-5----3------3-|-----3-------|| 
A|-----------5--|-(5)--3---5--3---|---------3-5---|-5-3----5----|| 
E|--------------|--------5------5-|---------------|-------------|| 


 Chorus 
 Segno $ 
   H.      Q    +W           H.      Q    +W 
G|------------|------------|------------|--------| 
D|-5-------3--|-(3)--------|------------|--------| 
A|------------|------------|-5-------5--|-(5)----| 
E|------------|------------|------------|--------| 


   H.      Q    +W           H.      Q    +W 
G|------------|------------|------------|--------| 
D|-5-------3--|-(3)--------|------------|--------| 
A|------------|------------|-5-------5--|-(5)----| 
E|------------|------------|------------|--------| 


   H.      Q    +W           W          W 
G|------------|------------|----------|------| 
D|-5-------5--|-(5)--------|-3--------|-2----| 
A|------------|------------|----------|------| 
E|------------|------------|----------|------| 


                                                   1.,D.S. 
                                                        To Coda 
   Q.   Q.   Q    +Q   E E Q  E E   Q.   Q  E E E   E E Q  H 
G|--------------|-----------------|---------------|--------------|| 
D|-5----3-------|-----------------|-5----3------3-|-----3-------o|| 
A|-----------5--|-(5)--3---5--3---|---------3-5---|-5-3----5----o|| 
E|--------------|--------5------5-|---------------|--------------|| 

  
                Interlude 
  2. 
   E E Q  H       Q.   Q.   Q    +Q   E E Q  E E   Q.   Q  E E E   E E Q  H 
G|-------------||--------------|-----------------|---------------|-------------|| 
D|-----3-------||-5----3-------|-----------------|-5----3------3-|-----3-------|| 
A|-5-3----5----||-----------5--|-(5)--3---5--3---|---------3-5---|-5-3----5----|| 
E|-------------||--------------|--------5------5-|---------------|-------------|| 


  Guitar Solo 
     Q.   Q.   Q    +Q   E E Q  E E   Q.   Q  E E E   E E Q  H     3x 
G||---------------|-----------------|---------------|--------------|| 
D||o-5----3-------|-----------------|-5----3------3-|-----3-------o|| 
A||o-----------5--|-(5)--3---5--3---|---------3-5---|-5-3----5----o|| 
E||---------------|--------5------5-|---------------|--------------|| 


                                                Dal Segno al Coda 
   Q.   Q.   Q    +Q   E E Q  E E   Q.   Q  E E E   E E Q  H 
G|--------------|-----------------|---------------|-------------|| 
D|-5----3-------|-----------------|-5----3------3-|-----3-------|| 
A|-----------5--|-(5)--3---5--3---|---------3-5---|-5-3----5----|| 
E|--------------|--------5------5-|---------------|-------------|| 


  Outro 
  Coda & 
     Q.   Q.   Q    +Q   E E Q  E E   Q.   Q  E E E   E E Q  H    18x 
G||---------------|-----------------|---------------|--------------|| 
D||o-5----3-------|-----------------|-5----3------3-|-----3-------o|| 
A||o-----------5--|-(5)--3---5--3---|---------3-5---|-5-3----5----o|| 
E||---------------|--------5------5-|---------------|--------------|| 

************************************ 
Duration Legend 

W - whole; H - half; Q - quarter; E - 8th; S - 16th; a - acciaccatura;  
+ - note tied to previous; . - note dotted; 
Duration letters will always appear directly above the note/fret number it represents the 
duration for.  Duration letters with no fret number below them represent rests. 
Uncapitalized letters represent notes that are staccato (1/2 duration).  

|  (n)   -  note tied to previous 
|   |    -  bar 
|   ||   -  double bar 
|  ||o   -  repeat start 
|  o||   -  repeat end 
************************************** 

Compartilhe esta música: novo

QR Code
Copiar