Theyre Jealous Of Me

Donna Loren

Tuning: EADG 

G|----------------------------------------------------------------| 
D|1-----------1---1---------------1-----------1---1---------------| 
A|------------------------1-------------------------------1-------| 
E|----------------------------------------------------------------| 

G|----------------------------------------------------------------| 
D|1-----------1---1---------------1-------------------------------| 
A|------------------------1---------------------------------------| 
E|----------------------------------------------------------------| 

0:08 

G|----------------------------------------------------------------| 
D|1-----------1---1---------------1-----------1---1---------------| 
A|------------------------1-------------------------------1-------| 
E|----------------------------------------------------------------| 

G|----------------------------------------------------------------| 
D|3-----------3---3---------------3-----------3---3---------------| 
A|------------------------3-------------------------------3-------| 
E|----------------------------------------------------------------| 

G|----------------------------------------------------------------| 
D|3-----------3---3---------------------------------------3-------| 
A|------------------------3-------1-----------1---1---------------| 
E|----------------------------------------------------------------| 

G|----------------------------------------------------------------| 
D|1-----------1---1---------------1-----------1---1---------------| 
A|------------------------1-------------------------------1-------| 
E|----------------------------------------------------------------| 

0:24 

G|----------------------------------------------------------------| 
D|1-----------1---1---------------1-----------1---1---------------| 
A|------------------------1-------------------------------1-------| 
E|----------------------------------------------------------------| 

G|----------------------------------------------------------------| 
D|3-----------3---3---------------3-----------3---3---------------| 
A|------------------------3-------------------------------3-------| 
E|----------------------------------------------------------------| 

G|----------------------------------------------------------------| 
D|3-----------3---3---------------------------------------3-------| 
A|------------------------3-------1-----------1---1---------------| 
E|----------------------------------------------------------------| 

G|----------------------------------------------------------------| 
D|1-----------1---1---------------1-------------------------------| 
A|------------------------1---------------------------------------| 
E|----------------------------------------------------------------| 

0:40 

G|----------------------------------------------------------------|. 
D|1-----------1---1---------------1-----------1---1---------------|. 
A|------------------------1-------------------------------1-------|. 
E|----------------------------------------------------------------|. 
                                                                   . 
G|----------------------------------------------------------------|. 
D|3-----------3---3---------------3-----------3---3---------------|. 
A|------------------------3-------------------------------3-------|. 
E|----------------------------------------------------------------|. 
                                                                   . x2 
G|----------------------------------------------------------------|. 
D|3-----------3---3---------------------------------------3-------|. 
A|------------------------3-------1-----------1---1---------------|. 
E|----------------------------------------------------------------|. 
                                                                   . 
G|----------------------------------------------------------------|. 
D|1-----------1---1---------------1-----------1---1---------------|. 
A|------------------------1-------------------------------1-------|. 
E|----------------------------------------------------------------|. 

1:12 

G|----------------------------------------------------------------| 
D|----------------------------------------------------------------| 
A|----------------------------------------------------------------| 
E|4-----------4-----------4-------1-----------1-----------1-------| 

G|----------------------------------------------------------------| 
D|--------------------------------1-----------1-------------------| 
A|--------------------------------------------------------1-------| 
E|4-----------4---3-------1---------------------------------------| 

G|----------------------------------------------------------------| 
D|----------------------------------------------------------------| 
A|----------------------------------------------------------------| 
E|4-----------4-----------4-------3-----------3-----------3-------| 

G|----------------------------------------------------------------| 
D|----------------------------------------------------------------| 
A|------------------------------------------------1-------1-------| 
E|1-----------1-----------1-------4-------4-----------------------| 

1:28 

G|----------------------------------------------------------------| 
D|1-----------1-------------------1-----------1---1---------------| 
A|------------------------1-------------------------------1-------| 
E|----------------------------------------------------------------| 

G|----------------------------------------------------------------| 
D|3-----------3---3---------------3-----------3---3---------------| 
A|------------------------3-------------------------------3-------| 
E|----------------------------------------------------------------| 

G|----------------------------------------------------------------| 
D|3-----------3---3---------------------------------------3-------| 
A|------------------------3-------1-----------1---1---------------| 
E|----------------------------------------------------------------| 

G|----------------------------------------------------------------| 
D|1-----------1---1---------------------------------------1-------| 
A|------------------------1-------2-------2-------4---------------| 
E|----------------------------------------------------------------| 

1:44 

G|----------------------------------------------------------------| 
D|2-----------2---2---------------2-----------2---2---------------| 
A|------------------------2-------------------------------2-------| 
E|----------------------------------------------------------------| 

G|----------------------------------------------------------------| 
D|4-----------4---4---------------4-----------4---4---------------| 
A|------------------------4-------------------------------4-------| 
E|----------------------------------------------------------------| 

G|----------------------------------------------------------------| 
D|4-----------4---4---------------------------------------1-------| 
A|------------------------4-------2-----------2---2---------------| 
E|----------------------------------------------------------------| 

G|----------------------------------------------------------------| 
D|2-----------2---2---------------2-----------2---2---------------| 
A|------------------------2-------------------------------2-------| 
E|----------------------------------------------------------------| 

2:00 

G|----------------------------------------------------------------| 
D|2-----------2---2---------------2-----------2---2---------------| 
A|------------------------2-------------------------------2-------| 
E|----------------------------------------------------------------| 

G|----------------------------------------------------------------| 
D|4-----------4---4---------------4-----------4---4---------------| 
A|------------------------4-------------------------------4-------| 
E|----------------------------------------------------------------| 

G|----------------------------------------------------------------| 
D|4-----------4---4---------------------------------------1-------| 
A|------------------------4-------2-----------2---2---------------| 
E|----------------------------------------------------------------| 

G|----------------------------------------------------------------| 
D|2-----------2---2---------------2-----------2---2-------2-------| 
A|------------------------2---------------------------------------| 
E|----------------------------------------------------------------| 

2:16 

G|----------------------------------------------------------------| 
D|----------------------------------------------------------------| 
A|2-----------2---2---------------2-----------2---2-------2-------| 
E|------------------------2---------------------------------------| 

G|----------------------------------------------------------------| 
D|2-----------2---2---------------2-----------2---2-------2-------| 
A|------------------------2---------------------------------------| 
E|----------------------------------------------------------------| 

G|----------------------------------------------------------------| 
D|----------------------------------------------------------------| 
A|2-----------2---2---------------2-----------2---2-------2-------| 
E|------------------------2---------------------------------------| 

G|--------------------------------------------------------------------| 
D|2-----------2---2---------------2-----------2---2-------2-----------| fades out here. 
A|------------------------2---------------------------------------2---| 
E|--------------------------------------------------------------------| 

Compartilhe esta música: novo

QR Code
Copiar