Wholl Stop The Rain

Creedence Clearwater Revival

- Who’ll stop the rain -
-  -
- Tabbed by Guillaume ([email protected]) -


Intro:

G|--------------------------|
D|--------------------------|
A|--------------------------|(x3)
E|--3---3-0---0--3---3-2-0--|  

Verse 1 and 2:

G|--------------|-------------|-------------|--------------|
D|--------------|-------------|-------------|--------------|
A|--------------|-------------|-3---3-3---3-|--------------|
E|--3---3-3---3-|-3---3-3---3-|-------------|-3---3-3---3--|

G|--------------|-------------|-------------|--------------|
D|--------------|-------------|-------------|--------------|
A|--------------|-------------|-3---3-3---3-|--------------|
E|--3---3-3---3-|-3---3-3---3-|-------------|-3---3-3---3--|   

G|--------------|-------------|-------------|--------------|
D|--------------|-------------|-------------|--------------|
A|--3---3-3---3-|-------------|-3---3-3---3-|--------------|
E|--------------|-3---3-3---3-|-------------|-3---3-3---3--|
  
G|--------------|-------------|-------------|--------------|
D|--------------|-------------|-------------|--------------|
A|--3---3-3---3-|-5---5-5---5-|-------------|--------------|
E|--------------|-------------|-0---0-0---0-|-3---3-3---3--|

Bridge:

G|-------------------------------|
D|-------------------------------|
A|-3-------5~~~~~~~~~---5--3-----| 
E|-----3-----------------------0-|

Verse 3:

G|-------------|-------------|-------------|-------------|
D|-------------|-------------|-------------|-------------|
A|-------------|-------------|-3---3-3---3-|-------------|
E|-3---3-3---3-|-3---3-3---3-|-------------|-3---3-3---3-|

G|-------------|-------------|-------------|-------------|
D|-------------|-------------|-------------|-------------|
A|-------------|-2---2-2---2-|-3---3-3---3-|-------------|
E|-3---3-3---3-|-------------|-------------|-3---3-3---3-| 

G|-------------|-------------|-------------|-------------|
D|-------------|-------------|-------------|-------------|
A|-3---3-3---3-|-------------|-3---3-3---3-|-------------|
E|-------------|-3---3-3---3-|-------------|-3---3-3---3-| 

G|-------------|-------------|------------|
D|-------------|-------------|------------|
A|-3---3-3---3-|-5---5-5---5-|------------|
E|-------------|-------------|-0---00---0-|
Outro:

G|--------------------------|
D|*------------------------*|
A|*------------------------*|
E|--3---3-0---0--3---3-2-0--|

Compartilhe esta música: novo

QR Code
Copiar