Sparks

Coldplay

Tom: Db
THe other tab was mostly correct, I just fixed a couple small things.
Intro: 

G|------------- 
D|------------- 
A|-4-6-4---1--- 
E|-------4---4-

Verse: 

G|------------------------------------------ 
D|----------------------------6----66-------- 
A|-4-61-/-4-61---6-6-84--684---64----6-6--84 
E|-------------1---------------------------- 

Chorus: (say aaaaah........) 

G|---------------------------------- 
D|--------------------------------3- 
A|-64-11-33-44-66-1---11-33-44-66--- 
E|---------------------------------- 

Structure: 

Intro x4 
Verse x1 
Chorus x1 
Intro x4 
Verse x1 
Chorus x1 
Intro x4

Compartilhe esta música: novo

QR Code
Copiar