Slave Driver (Live)

Bob Marley

Introdução 
 
|----------------------------------| 
|---------1--3^5--3--1-------------| Repete até entrar no Canto 
|---1^3-----------------5-5-3--1---| 
|----------------------------------| 
 
 
 
 
Canto  
 
|---3^5--5-3-5------3^5--3^5------------| 
|--------------5--------------------5---| 
|--------------------------------6------| 
|-----------------------------3---------| 
 
|---3^5--5-3-5------3^5--3^5------------| 
|--------------5------------------------| 
|--------------------------------6------| 
|-----------------------------3---------| 
 
 
 
Obs. O ?^? quer dizer Ligadura 

Compartilhe esta música: novo

QR Code
Copiar