Positive Vibrations

Bob Marley

 
G------------------------------------------- 
D---------------------------------------2--- 8x intro 
A--------------4-2------------------2-4----- 
E-5-5-5-0-2-5-------2-2-2-0-22-0-22--------- 
 
G------------------------------|------------------------------ 
D----------------------------2-|------------------------------ 
A------------------------2-4---|------------------------4-2-0- 
E-2-2222-2-2222-2-2222-2-------|-2-2222-2-2222-2-2222-2------- 
 
 
G---------------------------2--|------------------------------ 
D------------------------2-4---|------------------------------ 
A-2-2222-2-2222-2-2222-2-------|------------------------4-4--- 
E------------------------------|-2-2222-2-2222-2-2222-2------- 
 
G------------------------------|------------------------------ 
D----------------------------2-|---------------------4-2------ 
A------------------------2-4---|-------------------------4-4-- 
E-2-2222-2-2222-2-2222-2-------|-2-2222-2-2222-2-222---------- 
 
G----------------------------------------------- 
D----------------------------------------------- 
A-555-4-444-5-555-4-444-5-555-4-444-5-555-4-444- 
E----------------------------------------------- 
 
G------------------- 
D------------------- 
A------------0-2-4-- 
E-2-0-2--2-0-------- 

Compartilhe esta música: novo

QR Code
Copiar