All Day All Night.

Bob Marley

Introdução 
 
|------------10--9--10-| 
|11--10--11------------| 
|----------------------| 
|----------------------| 
 
|---------------------| 
|7--7---5--7----------| 
|-----7-------7--7----| 
|-------------------5-| 
 
 
|-------------------------| 
|5--5-------5--3------3---|  2X 
|------5--7-------3-5---5-| 
|-------------------------| 
 
|-----------------------| 
|-(2)?(2)----3------3---| 
|---------2-----3-5---5-| 
|-----------------------| 
 
|-----------------| 
|-2?-----2------5-| 
|-------2--2------| 
|-----------------| 
 
 
 
Obs. O ?()? quer dizer Seco 

Compartilhe esta música: novo

QR Code
Copiar