Tomorrow´s Dream

Black Sabbath

Tom: C# F# B E
Tune down 1 1/2 steps low to high (C# F# B E) 
                                                                     Well 
     ||------------------------------------------------------------||----- 
     ||------------------------------------------------------------||----- 
     ||-2/5--7-7-7-5-7-5-7\---5-5--5-2/5--7-7-7--5-7-5-7\---5-5--5-||-7-7- 
     ||------------------------------------------------------------||----- 
      I'll see you tomorrow at day break...        When sadness fills my  
     -------7h9-9-----7h9-9-----7h9-9-9--9-------||----------------------- 
     ---7h9-------7h9-------7h9------------------||-----------7----------- 
     -7-------------------------------------5----||-5-5---5-5---5-5---5-5- 
     ------------------------------------------5-||-----5-----------5----- 
     days...       SOLO:  This isn't the actual Geezer solo, but a groove  
     ------------||------------------------------------------------------7 
     ------------||-----5-5--------5-5---5-5-------------5-5---5---5-7-9-- 
     -5-5-5------||-5-7-----7--5-7-----7-----7-5-----5-7-----7---7-------- 
     -------5----||------------------------------7-7---------------------- 
     that works.          This\/ section is played at different times dur- 
     -7-7-----------------||------------------------------||ing the song. 
     -----9-7-5-----5-5---||------------------------------||The song's  
     -----------5-7-----7-||-5---5---5\--------5---5---5\-||pretty simple, 
     ---------------------||------------------------------||just piece it 
      /=slide up     h=hammer-on                                            together. 
     \=slide down 
 
 

Compartilhe esta música: novo

QR Code
Copiar