Sabbra Cadabra

Black Sabbath

Tom: C# F# B E
Tune down 1 1/2 steps low to high (C# F# B E) 
          Intro 
          ||-------------------------------------------------------- 
          ||-------5------------------------------------------------ 
          ||---5h7---7-7-7-7-7-7-7-7-7-7-7-7-5-5-5-5-5-5-5-5-5-5-5-5 
          ||-7------------------------------------------------------ 
 
          ---------------------------------------------------------- 
          ---------------------------------------------------------- 
          -4-4-4-4-4-4-4-4-4-4-4-4-3-3-3-3-3-3-3-3-3-3-3-7-7-7-7-7-7 
          ---------------------------------------------------------- 
 
          ---------------------------------------------------------- 
          ---------------------------------------------------------- 
          -7-9-9-9-9-9-9-9-10-10-10-10-10-10-10-12-12-12-12-12-12-12 
          ---------------------------------------------------------- 
 
          ---------------------------------------------------------- 
          ---------------------------------------------------------- 
          -7-7-7-7-7-7-7-9-9-9-9-9-9-9-10-10-10-10-10-10-10-12-12-12 
          ---------------------------------------------------------- 
                         main riff w/out vocals 
          -------------||------------------------------------------- 
          -------------||------------------------------------5------ 
          -12-12-12-12-||-5h7-7--7-7-7-5h7-7--7-7-7--5-4-5-4---5h7-7 
          -------------||------------------------------------------- 
                                                    Feel good,well I 
          ----------------------------------------|----------------- 
          ---------------------------5------------|----------------- 
          -7-7-5h7-7--7-7-7--5-4-5-4---5h7-7--7-7-|-5h7-7--7-7-7-5h7 
          ----------------------------------------|----------------- 
          feel just fine... 
          --------------------------------------------------------|| 
          --------------------------------------------------------|| 
          7--7-7-7--5--5-5--5-5--5-5--5-5h7-7--7-7-7-5h7-7--7-7-7-|| 
          --------------------------------------------------------|| 
          Someone to love me... 
          ---------------------------------7h9-7-------------------- 
          ----7---7-7-5h7-5h7-5-------------------9-7-5------------- 
          ----------------------7----6-7-9--------------5h7-7--7-7-7 
          -5----5------------------7-------------------------------- 
             Middle section 
          -||------------------------------------------------------- 
          -||------------------------------------------------------5 
          -||----5-6-7-7-7\----------5-6-7---7\----------5-6-7-7-7-- 
          -||--7-------------------7-------0-----------7------------ 
 
                             just groove it 
          ---------------------------------------------------------- 
          -----------------------------------------7-5-------------- 
          -7-6-5---5-6-7-7-7\------------5-6-7-7-7-----7-5---5-6-7-7 
          -------7---------------------7-------------------7-------- 
                  Walking bass part 
          ------||----------------------6-7-8-------------------|--- 
          ------||--------------6-7-8-9-------9-7---7b(9)-9-7---|--- 
          -7\---||------6-7-8-9-------------------9-----------9-|-7- 
          ------||-8--8-----------------------------------------|--- 
          groove aroung with these notes some till the end. 
          ----------------------------------------------------|| 
          ---------------7-7b(9)-7-5-------------7-7b(9)-7-5--|| 
          -7-7-7-7-5-7-7-------------7-7-7-5------------------|| 
          -----------------------------------7-5--------------|| 
 
 
 

Compartilhe esta música: novo

QR Code
Copiar