Evil Woman

Black Sabbath

            Intro                  Main/Vocal/solo riff 
          ||--3---------1---------|---------------------------------| 
          ||-------3---------1----|---------------------------------| 
          ||----------------------|----------1-----------------1--3-| 
          ||----------------------|-1---3--3----3--3-1---3--3-------| 
                                         Evil Woman don't you play... 
          -------------------------------||----------------1--1-3--3- 
          ---------5----------------5--7-||-----0-1--2-3-4----------- 
          -5--7--7----7--7-5---7--7------||-1-1---------------------- 
          -------------------------------||-------------------------- 
 
          -3-3----------------------------------------------------1-- 
          -------------------------3-------------------0-1--2-3-4---- 
          -------------------1-3/5-----------1--3--1-1--------------- 
          ------1---3--3-1-3---------1--3--3------------------------- 
                        Pre-solo 
          1-3--3-3-3--||-------------|| 
          ------------||-------------|| 
          ------------||-------------|| 
          ------------||-1-1-1-1-1-1-|| 

Compartilhe esta música: novo

QR Code
Copiar