Changes

Black Sabbath

Tom: C
 INTRO 
                I feel... 
|----------|---------------| 
|----------|---------------| 
|----------|---------------| 
|----------|---------------| 
 
A VERSE % 
                         I feel          sad   
   woman                 I love          so 
   years                 we shared       day 
   world                 had its         way 
|---------------3--5--|---------------|--------5--------|-----------|--7---------|-----------| 
|*--------3--5--------|---------------|-----------3--5--|-----------|------5--7--|-----------| 
|*--3-----------------|--3------------|--3--------------|--3-----3--|------------|--5-----5--| 
|---------------------|--------3------|-----------------|-----------|------------|-----------| 
 
   had         day 
   world                 had its         way 
|---------------3--5--|---------------|--------5--------|-----------|--7---------|-----------| 
|*--------3--5--------|---------------|-----------3--5--|-----------|------5--7--|-----------| 
|*--3-----------------|--3------------|--3--------------|--3-----3--|------------|--5-----5--| 
|---------------------|--------3------|-----------------|-----------|------------|-----------| 
 
   had                  she was 
   go 
   way                  but soon 
   stray 
                   1_____________ 
|--------5--------|-------------| 
|-----------3--5--|------------*| 
|--3--------------|--3-----3---*| 
|-----------------|--------3----| 
 
B Chorus % % 
       I'm       going     changes 
 2____________                                                                      TO CODA %% 
|-------------|----------|---------|---------              she was 
   go 
   way                  but soon 
   stray 
                   1_____________ 
|--------5--------|-------------| 
|-----------3--5--|------------*| 
|--3--------------|--3-----3---*| 
|-----------------|--------3----| 
 
B Chorus % % 
       I'm       going     changes 
 2____________                                                                      TO CODA %% 
|-------------|----------|---------|------------|--------|--------|--------|--------| 
|*------------|----------|---------|-----------*|--------|--------|--------|--------| 
|*--8---------|--7-------|--5------|--5--------*|--8-----|--7-----|--5-----|--5-----| 
|-------------|----------|---------|------------|--------|--------|--------|--------| 
 
|--------7--------|--------5--------|--------------|-----------|--------7--9-----------9-------| 
|--5-----------5--|--3----------|--------|--------|--------|--------| 
|*------------|----------|---------|-----------*|--------|--------|--------|--------| 
|*--8---------|--7-------|--5------|--5--------*|--8-----|--7-----|--5-----|--5-----| 
|-------------|----------|---------|------------|--------|--------|--------|--------| 
 
|--------7--------|--------5--------|--------------|-----------|--------7--9-----------9-------| 
|--5-----------5--|--3-----------3--|--7-----------|--------5--|--7-----------------------5--7-| 
|-----------------|-----------------|--------5--7--|-----------|--------------5--7-------------| 
|-----------------|-----------------|--------------|--5--------|-------------------------------| 
 
       we shared 
|--9------------|---------5---------|-----------| 
|---------------|*------------3--5--|----------*| 
|---5-----------|*--3---------------|--3-------*| 
|-----------3--|--7-----------|--------5--|--7-----------------------5--7-| 
|-----------------|-----------------|--------5--7--|-----------|--------------5--7-------------| 
|-----------------|-----------------|--------------|--5--------|-------------------------------| 
 
       we shared 
|--9------------|---------5---------|-----------| 
|---------------|*------------3--5--|----------*| 
|---5-----------|*--3---------------|--3-------*| 
|---------------|-------------------|--------3--| 
 
CODA % 
|---------5---------|-------------|--------7---------|--------------|--------5-----------| 
|*------------3--5--|------------*|------------5--7--|--------5--7--|--------------3--5--| 
|*--3---------------|--3-----3---*|--5---------------|--5-----------|--3-----------------| 
|-------------------|--------3----|------------------|--------------|--------------------| 
 
|-----------|----------------|-------------------|--------3--| 
 
CODA % 
|---------5---------|-------------|--------7---------|--------------|--------5-----------| 
|*------------3--5--|------------*|------------5--7--|--------5--7--|--------------3--5--| 
|*--3---------------|--3-----3---*|--5---------------|--5-----------|--3-----------------| 
|-------------------|--------3----|------------------|--------------|--------------------| 
 
|-----------|---------5---------|-------------| 
|-----------|*------------3--5--|--------5---*| 
|--3--------|*--3---------------|--3---------*| 
|--------3--|-------------------|--------3----| 
 
VERSE 
   long                            realize 
   days                            filled with    tears 
|---------------5---------|--------------------|--------3-----------|-----------| 
|*--------5---------3--5--|--------5-----------|--------5-----3--5--|-----------| 
-5---------|-------------| 
|-----------|*------------3--5--|--------5---*| 
|--3--------|*--3---------------|--3---------*| 
|--------3--|-------------------|--------3----| 
 
VERSE 
   long                            realize 
   days                            filled with    tears 
|---------------5---------|--------------------|--------3-----------|-----------| 
|*--------5---------3--5--|--------5-----------|--------5-----3--5--|-----------| 
|*--3---------------------|--3-----------------|--3-----------------|--3-----3--| 
|-------------------------|--------------------|--------------------|-----------| 
 
   still hear                              her last 
   go        back                          and change 
|--------------------5--7---------|--------7------------|--------------5-----------| 
|----------------7----------5--7--|------------5--7-----|--------5-----------3--5--| 
|--5--------------- 
|*--3---------------------|--3-----------------|--3-----------------|--3-----3--| 
|-------------------------|--------------------|--------------------|-----------| 
 
   still hear                              her last 
   go        back                          and change 
|--------------------5--7---------|--------7------------|--------------5-----------| 
|----------------7----------5--7--|------------5--7-----|--------5-----------3--5--| 
|--5------------------------------|--5------------------|--3-----------------------| 
|---------------------------------|---------------------|--------------------------| 
 
                   now all    to B AL CODA %% 
|--------------------------| 
|------------------3------*| 
|--3---------------3------*| 
|--------------------------| 
 
CODA%% 
|------------|--------5--------|--------5-----------|-----------| 
|--5---------|--3-----------3--|--7-------------------|--5------------------|--3-----------------------| 
|---------------------------------|---------------------|--------------------------| 
 
                   now all    to B AL CODA %% 
|--------------------------| 
|------------------3------*| 
|--3---------------3------*| 
|--------------------------| 
 
CODA%% 
|------------|--------5--------|--------5-----------|-----------| 
|--5---------|--3-----------3--|--7-----------------|--------5--| 
|------------|-----------------|--------------5--7--|-----------| 
|------------|-----------------|--------------------|--5--------| 
 
|---------7--9---7--9--|--7--9---------------|--------------------|-----------| 
|*--7------------------|-----------5--------*|--------7-----------|-----------| 
|*---------------------|--------------5--7--*|--------------5--7--|-----------| 
|----------------------|--------------------------------|--------5--| 
|------------|-----------------|--------------5--7--|-----------| 
|------------|-----------------|--------------------|--5--------| 
 
|---------7--9---7--9--|--7--9---------------|--------------------|-----------| 
|*--7------------------|-----------5--------*|--------7-----------|-----------| 
|*---------------------|--------------5--7--*|--------------5--7--|-----------| 
|----------------------|---------------------|--5-----------------|--5--------| 
 

Compartilhe esta música: novo

QR Code
Copiar