Spoonman

Audioslave

Overdrive throughout the whole song. 

Intro: 
G|-----------------------------------------| 
D|-----------------------------------------| 
A|--3h5-5-5-5--3-5-0---0-------------------| x 4 
D|-------------------5---3-0-3h5-5-5-0-0-0-| 

verse 1: 
G|----------------------------------------------------------------| 
D|----------------------------------------------------------------| 
A|--3h5-5-5-5--3-5-0-------3h5-5-5-5--3-5-0---0-------------------| x 2 
D|-------------------5~---------------------5---3-0-3h5-5-5-0-0-0-| 

G|-----------------------------------------| 
D|-----------------------------------------| 
A|--3h5-5-5-5--3-5-0---0-------------------| 
D|-------------------5---3-0-3h5-5-5-0-0-0-| 

Chorus 1: 
G|--------------------------| 
D|----------------5p3-------| 
A|--------------------5p3-0-|  x 4 
D|--5p3-5p3-5p3-0-----------| 

G|-----------------------------------------| 
D|-----------------------------------------| 
A|--3h5-5-5-5--3-5-0---0-------------------| x 2 
D|-------------------5---3-0-3h5-5-5-0-0-0-| 

verse 2: 
Same as verse 1 

Chorus 2:  
G|--------------------------| 
D|----------------5p3-------| 
A|--------------------5p3-0-|  x 4 
D|--5p3-5p3-5p3-0-----------| 

G|-----------------------------------------| 
D|-----------------------------------------| 
A|--3h5-5-5-5--3-5-0---0-------------------| x 4 
D|-------------------5---3-0-3h5-5-5-0-0-0-| 

Bridge: 
G|------------------------------| 
D|----------------5-3-----------| 
A|--5p3-5p3-5p0h3-----5-3-------| x 4 
D|------------------------5-3-0-| 

G|------------------------------------| 
D|------------------------------------| 
A|--5p3-5p3-5p3--------5p3-5p3-5p3----| 
D|--------------0~-----------------5~-| 

Solo: 
G|-----------------------------------------| 
D|-----------------------------------------| 
A|--3h5-5-5-5--3-5-0---0-------------------| x 4 
D|-------------------5---3-0-3h5-5-5-0-0-0-| 

Wait for 17 sec. 

Bridge 2: 
G|------------------------------| 
D|----------------5-3-----------| 
A|--5p3-5p3-5p0h3-----5-3-------| x 12 
D|------------------------5-3-0-| 

Chorus 3: 
Same as Chorus 2 

Outro: 
G|------------------------------------| 
D|------------------------------------| 
A|--3h5-5-5-5--3-5-0-------3h5-5-5-5~-| 
D|-------------------5~---------------| 

Compartilhe esta música: novo

QR Code
Copiar