Jewel Of The Summertime

Audioslave

Verse 
 
|-----------(play a lot)-|-------------| 
|------------------------|-------------| 
|-----------/8-8-8-8-8-8-|-------------| 
|-0--0-2-3---------------|-7---------3-| 


Chorus 
 
|---------------------------------------|-----------------------------| 
|---------------------------------------|-----------------------------| 
|--5--3h5-5--3--2h3-3--2--0h2-2--0------|--5--3h5-5--3--2h3-3---------| 
|-0-0-------0-0-------0-0-------0-0-3-5-|-0-0-------0-0------7------3-| 


Verse 
 
|-----------(play a lot)-|-------------| 
|------------------------|-------------| 
|-----------/8-8-8-8-8-8-|-------------| 
|-0--0-2-3---------------|-7---------3-| 


Chorus2 
 
|---------------------------------------|-------------------------------| 
|---------------------------------------|-------------------------------| 
|--5--3h5-5--3--2h3-3--2--0h2-2--0------|--5--3h5-5--3--2h3-3-----------| 
|-0-0-------0-0-------0-0-------0-0-3-5-|-0-0-------0-0------7--5--3--1-| 


Solo 
 
|-----------------------x4| 
|-----------/101010101010-| 
|-0--0-2-3----------------| 
|-------------------------| 


 
|------------------------x4| 
|--------------------------| 
|-------------/8-8-8-8-8-8-| 
|-12/--0-2-3---------------| 


Verse 
 
|-----------(play a lot)-|-------------| 
|------------------------|-------------| 
|-----------/8-8-8-8-8-8-|-------------| 
|-0--0-2-3---------------|-7---------3-| 


Chorus (don't play beggining bit, then play this till fade out) 
 
|---------------------------------------| 
|---------------------------------------| 
|--5--3h5-5--3--2h3-3--2--0h2-2--0------| 
|-0-0-------0-0-------0-0-------0-0-3-5-| 

Compartilhe esta música: novo

QR Code
Copiar