Make Me Laugh

Anthrax

intro
G||------||--------------------------------------||
D||o----o||o------------------------------------o||
A||o----o||o------------------------------------o||
E||--0~--||--0---0---0---0---0---0---0---0--5^7--||

G||--------------------------------||---------------||
D||o------------------------------o||o-------------o||
A||o----------2~-----------2--3-2-o||o-------------o||
E||--0--2--3------0--2--3----------||--0--2--3--0~--||

G||-----------------------------------||
D||o---------------------------------o||
A||o---------------------------------o||
E||--0-0-0-0-0-0-0-0-0-0-0-0-0-0-0-0--||

verse
G||-------------------------------------||
D||o-----------------------------------o||
A||o-----------------------------------o||
E||--3-3-3-3-3-3-3-3-3-3-3-3-3-3-3-3-3--||

prechorus 
G||-------------------------||
D||o-----------------------o||
A||o-2-2-2-1---2-2-2-1-----o||
E||--------------------3-0--||

chorus     
G||--------------------------------||
D||o------------------------------o||
A||o-------0--------------0-------o||
E||--0-2-3---0-2-3--0-2-3---3-2-0--||

bridge
G||--------------------------------||
D||o------------------------------o||
A||o------------------------------o||
E||--0^2--2-2-3-2-2-2-0^2-2-2-2-2--||

Compartilhe esta música: novo

QR Code
Copiar