Inside Out

Anthrax

Gb\--------------------------------
Db\--------------------------------
Ab\--------------------------------
Db\200-2002-00-2003-00-2002-00-1-1-
          ^       ^       ^
bend the notes indicated up kind of severely


Gb\-----------------------
Db\------0----------------
Ab\-----------------------
Db\0------------1---2-----


Gb\--------------
Db\--------------
Ab\345-----------
Db\----5---3---5-

Gb\----------------
Db\----------------
Ab\----------------
Db\3-----5---3---5-


Gb\--------------
Db\--------------
Ab\345-345-345---
Db\--------------

Gb\----------------------------------------------------------------
Db\----------------------------------------------------------------
Ab\----------------------------------------------------------------
Db\0-----------3---8-----------3---8-----------7---0-------1---2---
   \     slide between all these notes              /


Gb\----------------------------------------
Db\----------------------------------------
Ab\----------------------------------------
Db\0-0-0-0-0-0-0-0-0-0-0-0-0-....... ect...
   do this muted for the snare roll build when the kick starts in

Gb\---------------------------------
Db\---------------------------------
Ab\---------------------------------
Db\00002002-0002002-0002002-0002002-........ ect.....
          ^       ^       ^       ^
bend the notes indicated up kind of severely
   during the first shreiking part of the solo

Gb\----------------------------------------------------------------------
Db\----------------------------------------------------------------------
Ab\----------------------------------------------------------------------
Db\00002002-00-3---8-00002002-00-3---8-00002002-00-7---0-00002002-00-1-1-
          ^                 ^                 ^                 ^
bend the notes indicated up kind of severely
   during the main body of the solo


the very last riff is just:
Gb\--------------
Db\--------------
Ab\345-345-345---
Db\--------------
   played slowing down

Compartilhe esta música: novo

QR Code
Copiar