Got the time

Anthrax

Intro and Chorus riff 
  
  3x 
G|------------------------------------|-----------------------------|--------- 
D|*----------------------------------*|-----------------------------|--------- 
A|*----------4-4-4-4-6-6-6-6---------*|-----------------------------|--------- 
E|---6-6-6-6-----------------4-4-4-4--|-4--0-4--0-4--0-4--4-4--6----|--------- 
                                                                               
  
Verse and pre-verse riff (repeat often) 
-|-------------------------------------|-------------------------------------- 
-|*-----------------------------------*|-------------------------------------- 
-|*-----------------------------------*|-------------------------------------- 
-|--6-6-6-6-6-6-6-6-6-6-6-6-6-6-6-6--4-|-------------------------------------- 
                                                                               
  
pre-Chorus
-|-----------------------------------|---------------------------------------- 
-|-----------------------------------|---------------------------------------- 
-|---------------------4-4-4---6-----|---------------------------------------- 
-|6-4---2-2-2--1-1-1-----------------|---------------------------------------- 
                                                                               
  
Bass solo                                               All of these slides up 
                                                        come from about a 5th 
                                                        below the written note 
-|-----------------------------------------------------|------------------/18- 
-|----------------------------4h-6--6-6-6--4h-6--6-6-6-|-/11-/13-/14--/15----- 
-|-----------------------------------------------------|---------------------- 
-|-4h-6--6-6-6---4h-6--6-6-6---------------------------|---------------------- 
                                                                               
  
-|-6-6-6-6-6-------------------------------|-------------------------------|-- 
-|-----------8-8-8-8-8-6-6-6-6-6-----------|-------------------------------|-- 
-|-------------------------------8-8-8-8-8-|-------------------------------|-- 
-|-----------------------------------------|-4h-6--6-6-6---0---6--6/18---0-|-- 
                                                                               
(x many times)                  (play after guitars join back in) 
-|-------6--------8-------------|---------------|----------------------------- 
-|*-6h-8----8h-10--------------*|*-------------*|----------------------------- 
-|*----------------------------*|*-------------*|----------------------------- 
-|-------------------6--6-6-6---|--4h-6--6-6-6--|----------------------------- 
                                                                               
after the solo go to the pre Chorus... 

Compartilhe esta música: novo

QR Code
Copiar