Bring The Noise

Anthrax

									
	
-tabbed by Alex Eakin-
	~ = rest
Guitar and Drums intro
Then
G----------------|----------------|----------------|----------------|  x4
D----------------|----------------|----------------|----------------|
A-------1--------|-------1--------|-------1--------|-------2--------|
E-1-2-1---1-1—-1-|-1-2-1---1-1—-1-|-1-2-1---1-1—-1-|-1-2-1---1-1—-1-|

G-----------------|	x8
D-----------------|
A-----1---1-------|
E-3-3---3---1-1-2-|

Drums

G-----------------|----------------|----------------|---------------|   x2
D-----------------|----------------|----------------|---------------|
A--------1--------|-------1--------|-------1--------|------2--------| 
E-~~~4-1---1-1—-1-|-1-2-1---1-1—-1-|-1-2-1---1-1—-1-|1-3-1---1-1—-1-|

G------------------|------------------|	X4
D------------------|------------------|
A-----1---1--------|-----1---1--------|
E-3-3---3---1-11-2-|-3-3---3---1-11-2-|

G----------------|----------------|----------------|----------------|  X4
D----------------|----------------|----------------|----------------|
A-------1--------|-------1--------|-------1--------|-------2--------|
E-1-2-1---1-1—-1-|-1-2-1---1-1—-1-|-1-2-1---1-1—-1-|-1-3-1---1-1—-1-|

G-----------------|-----------------|		x4
D-----------------|-----------------|
A-----1---1-------|-----1---1-------|
E-3-3---3---1-1-2-|-3-3---3---1-1-2-|

G----------------|	X8	G--------------|-----------------| x7
D----------------|	   	D--------------|-----------------|
A---------1------|		A-------1------|-------1---------|
E-1-1-2-3---1—---|		E-1-3-1---1-1—-|-1-3-1---1-1—-1--|

-Guitar and Drums outro-

Compartilhe esta música: novo

QR Code
Copiar