Alpha Male

Anthrax

  
 
album: Volume 8-the threat is real
bassist: Farnk Bello
tabbed by: Drew Porter
Email: [email protected]

intro             all the guitar mute build up parts
G||-------------||-------------------||
D||-------------||o-----------------o||
A||-----------4-||-------------------||
E||---0-2-4-0---||o-----------------o||
B||-2-----------||--2-2-2-2-2-2-2-2--||

verse                    bridge before chorus   chorus
G||--------------------||---------------------||-------------||
D||o------------------o||o-------------------o||o-----------o||
A||--------------------||------4-3-2-----4-2--||-------------||
E||o------------------o||o-------------------o||o---0-2-4-0-o||
B||--0-2-2------0-2-2--||--2-2-------2-2------||--2----------||

bridge/solo (after playing that just hold the c# on the b string instead of building it up then play the bridge again)
G||-----------------------||
D||o---------------------o||
A||-----------------------||
E||o-4-4-4-2-0-4-4-4-2-0-o||
B||-----------------------||

Compartilhe esta música: novo

QR Code
Copiar