Moving Slow

Alex Calder

Verse 
G|-------------------------------------------------------| 
D|-7-7--7-7-7-9\7-7--7-7-7-9\4-4--4-4-4--4-4-4--4-4-4--4-| 
A|-------------------------------------------------------| 
E|-------------------------------------------------------|(x4) 

Chorus 
G|------------------------------------------6-6--6-6-6--6--| 
D|--7-7--7-7---9\4-4--4-4-4--4-7-7--7-7---9\---------------| 
A|-----------7--------------------------7------------------| 
E|---------------------------------------------------------|(x3) 

G|------------------------------------------6-6--6-6-6--6-6-6--6-6-6--6-| 
D|--7-7--7-7---9\4-4--4-4-4--4-7-7--7-7---9\----------------------------| 
A|-----------7--------------------------7-------------------------------| 
E|----------------------------------------------------------------------|(x1) 

Verse 
G|-------------------------------------------------------| 
D|-7-7--7-7-7-9\7-7--7-7-7-9\4-4--4-4-4--4-4-4--4-4-4--4-| 
A|-------------------------------------------------------| 
E|-------------------------------------------------------|(x4) 

Chorus 
G|------------------------------------------6-6--6-6-6--6--| 
D|--7-7--7-7---9\4-4--4-4-4--4-7-7--7-7---9\---------------| 
A|-----------7--------------------------7------------------| 
E|---------------------------------------------------------|(x3) 

G|------------------------------------------6-6--6-6-6--6-6-6--6-6-6--6-| 
D|--7-7--7-7---9\4-4--4-4-4--4-7-7--7-7---9\----------------------------| 
A|-----------7--------------------------7-------------------------------| 
E|----------------------------------------------------------------------|(x1) 


************************************ 

| \  Slide down 

************************************ 

Compartilhe esta música: novo

QR Code
Copiar